Home » D » Demented Are Go »

Demented Are Go - Where You Gonna Go Tabs

Artists:  A B C D E F G H I J K L M N O P Q R S T U V W X Y Z # 

Where You Gonna Go Tabs

(ver. 1) Click to play this song!
Demented Are Go
This song has three different ways to play the chords,so here they are.
Just listen to the song and you'll know.
1st
  F      G#     D#     A#
e-1-1-1--4-4-4--6-6-6--6-6-6--|
B-1-1-1--4-4-4--8-8-8--6-6-6--|
G-2-2-2--5-5-5--8-8-8--7-7-7--|
D-3-3-3--6-6-6--8-8-8--8-8-8--|
A-4-4-4--6-6-6--6-6-6--8-8-8--|
E-1-1-1--4-4-4---------6-6-6--|


2nd
  F    G#    D#    A#
e-1~---4~----6~----6~---------|
B-1~---4~----8~----6~---------|
G-2~---5~----8~----7~---------|
D-3~---6~----8~----8~---------|
A-4~---6~----6~----8~---------|
E-1~---4~----------6~---------|


3rd
  F    G#   D#     A#      [      ]
e-1-1--4-4--6-6----6-6-----6-5-6-5---------|
B-1-1--4-4--8-8----6-6-----6-5-6-5---------|
G-2-2--5-5--8-8----7-7-----7-6-7-6---------|
D-3-3--6-6--8-8----8-8-----8-7-8-7---------|
A-4-4--6-6--6------8-8-----8-7-8-7---------|
E-1----4-----------6---------5-6-5---------|


The [      ] part you can also play on the 1st.


Solo
e---------------------------------------|
B---------------------------------------|
G--3-3-3-5-5-5-6-6-6-5-6-5--------------|
D--3-3-3-5-5-5-6-6-6-6-6-6--------------|
A---------------------------------------|
E---------------------------------------|

solo might be totaly wrong, but thats how i play it.
            
Submit corrections

↑ Back to top | Tablatures and chords for acoustic guitar and electric guitar, ukulele, drums are parodies/interpretations of the original songs. You may use it for private study, scholarship, research or language learning purposes only