Home » D » Deliverance »

Deliverance - No Love Tabs

Artists:  A B C D E F G H I J K L M N O P Q R S T U V W X Y Z # 

No Love Tabs

(ver. 1) Click to play this song!
Deliverance

Tuning: 1/2 Step Down (Eb,Ab,Db,Gb,Bb,Eb)

INTRO: (guitar 1)
|------------------|
|------------------|
|------------------|
|----2--0----------|
|-0--------3-2-0---|
|----------------3-|
pm         . . . .

INTRO: (guitar 2) (* - 0 played 1st time, 1 the rest)
|-*0*--3--2--------------3/5-2----------|
|-*1*--------5-3-1-0--1---------5-3-1-0-|
|---------------------------------------|
|---------------------------------------|
|---------------------------------------|
|---------------------------------------|
pm           . . . .            . . . . 

INTRO 2: (both guitars)
|---------------|
|---------------|
|---------------|
|---------------|
|-2-2--2-2--2-2-|
|-0-0--0-0--0-0-|

VERSE:
|----------------------------------------|
|----------------------------------------|
|----------------------------------------|
|----------------------------------------|
|-2---------8-7------2---------8-7-00566-|
|-0-000-000-6-5-032100-000-000-6-5-------|
pm  ... ...     ....   ... ...     ...

CHORUS:
|gtr. 1
|------------------------------|
|------------------------------|
|------------------------------|
|-9-------9----------9---------|
|-7-10-12-7----------7---10-12-|
|----8-10---000-000-0-----8-10-|
|pm         ... ... .
|
|gtr. 2
|------------------------------|
|------------------------------|
|------------------------------|
|-5-------5----------5-7---7---|
|----7--9----------------7---9-|
|-----------000-000-0----------|
|pm         ... ... .

CHORUS 2: (both guitars)
|---------------------------------------------------|
|---------------------------------------------------|
|---------------------------------------------------|
|-12-----------14-9-----------14-11-----------11-12-|
|-10-----------12-7-----------12--9------------9-10-|
|----000-000-0------000-000-0-------000-000-0-------|
pm   ... ... .      ... ... .       ... ... .

SOLO BACKGROUND:
|---------------------|
|---------------------|
|---------------------|
|---------------------|
|-12----10----9----55-|
|-10-00--8-00-7--0-33-|
pm   ..    ..    .

INTERLUDE: (guitar 1)
|------------------------------------------------------------------|
|------------------------------------------------------------------|
|-----------------------------------14-14-12-----------------------|
|-12-14-14/15-14--15-15/17-15-14-12----------15-14--14-14/15-14-12-|
|------------------------------------------------------------------|
|------------------------------------------------------------------|

|----------------------------------------------------------------------|
|----------------------------------------------------------------------|
|---------------------------------------------14-14-12-----------------|
|-------12--12-14-14/15-14--15-15/17-15-14-12----------15-14--14-14/15-|
|-15-15----------------------------------------------------------------|
|----------------------------------------------------------------------|

|--------|
|--------|
|--------|
|-14-12\-|
|--------|
|--------|

INTERLUDE: (guitar 2) (doubles 1st guitar halfway through)
|---------------------------------------------|
|---------------------------------------------|
|---------------------------------------------|
|-0-2-2/3-2-3-3/5-3-2-0--7-7-5-3-2--2-2/3-2-0-|
|---------------------------------------------|
|---------------------------------------------|

INTERLUDE 2:
|--------------------------------|
|--------------------------------|
|--------------------------------|
|-0-4-5-5--4-5-4--0-4-5-5--4-5-4-|
|--------------------------------|
|--------------------------------|

INTERLUDE 3: (guitar 1)
|--------------------------------------|
|--------------------------------------|
|------------------------------------0-|
|--------------------------------------|
|-------3-2-------8--------3-2-----8---|
|-0-0-0-1-0-0-0-0-6--0-0-0-1-0-0-6-----|
pm. . .     . . .    . . .     .

INTERLUDE 3: (guitar 2)
|---------------------------------------|
|---------------------------------------|
|---------------------------------------|
|---------------------------------------|
|-------3-----------3-----------3-------|
|-0-0-0-1-0-0-0-0-0-1-0-0-0-0-0-1-0-0-0-|
pm. . . . . . . . . . . . . . . . . . .

CHORUS 3:
|-------------------------------------------------------------|
|-------------------------------------------------------------|
|-------------------------------------------------------------|
|-9-----------------------------------------------------------|
|-7-777-777-777-0-10---------------12-------------------------|
|------------------8-888-888-888-8-10-101010-101010-101010-10-|
pm  ... ... ... .    ... ... ... .    ...... ...... ...... ..

|-----------------|
|-----------------|
|-----------------|
|-9---------------|
|-7-777-777-777-7-|
|-----------------|
pm  ... ... ... .
            
Submit corrections

↑ Back to top | Tablatures and chords for acoustic guitar and electric guitar, ukulele, drums are parodies/interpretations of the original songs. You may use it for private study, scholarship, research or language learning purposes only