Home » D » Del Amitri »

Del Amitri - Nothing Ever Happens Tabs

Artists:  A B C D E F G H I J K L M N O P Q R S T U V W X Y Z # 

Nothing Ever Happens Tabs

(ver. 3) Click to play this song!
Del Amitri
Gtr I (E A D G B E) - 'Acoustic Guitar w/ capo 5th fret'
Gtr II (E A D G B E) - 'Acoustic Guitar'

 Intro
  Q=144
  C
 4/4
  Gtr I (Ac. Gtr. w/ capo 5th fret)
     |-3-|      |-3-|      |-3-|      |-3-|
  Q  E E E a Q  E E E   Q  E E E a Q  E E E
|-0--0-0-0---0--0-0-0-|-0--0-0-0---0--0-0-0-||
|-1--1-1-1---1--1-1-1-|-1--1-1-1---1--1-1-1-||
|-0--0-0-0---0--0-0-0-|-0--0-0-0---0--0-0-0-||
|-2--2-2-2-0h2--2-2-2-|-2--2-2-2-0h2--2-2-2-||
|-3--3-3-3---3--3-3-3-|-3--3-3-3---3--3-3-3-||
|---------------------|---------------------||


 1st Verse
  C
     |-3-|    |-3-|      |-3-|    |-3-|
  Q  E E E Q  E E E   Q  E E E Q  E E E
|-0--0-0-0-0--0-0-0-|-0--0-0-0-0--0-0-0--|
|-1--1-1-1-1--1-1-1-|-1--1-1-1-1--1-1-1--|
|-0--0-0-0-0--0-0-0-|-0--0-0-0-0--0-0-0--|
|-2--2-2-2-2--2-2-2-|-2--2-2-2-2--2-2-2--|
|-3--3-3-3-3--3-3-3-|-3--3-3-3-3--3-3-3--|
|-------------------|--------------------|


  Am
     |-3-|    |-3-|      |-3-|    |-3-|
  Q  E E E Q  E E E   Q  E E E Q  E E E
|-0--0-0-0-0--0-0-0-|-0--0-0-0-0--0-0-0-|
|-1--1-1-1-1--1-1-1-|-1--1-1-1-1--1-1-1-|
|-2--2-2-2-2--2-2-2-|-2--2-2-2-2--2-2-2-|
|-2--2-2-2-2--2-2-2-|-2--2-2-2-2--2-2-2-|
|-0--0-0-0-0--0-0-0-|-0--0-0-0-0--0-0-0-|
|-------------------|-------------------|


  C
     |-3-|    |-3-|      |-3-|    |-3-|
  Q  E E E Q  E E E   Q  E E E Q  E E E
|-0--0-0-0-0--0-0-0-|-0--0-0-0-0--0-0-0--|
|-1--1-1-1-1--1-1-1-|-1--1-1-1-1--1-1-1--|
|-0--0-0-0-0--0-0-0-|-0--0-0-0-0--0-0-0--|
|-2--2-2-2-2--2-2-2-|-2--2-2-2-2--2-2-2--|
|-3--3-3-3-3--3-3-3-|-3--3-3-3-3--3-3-3--|
|-------------------|--------------------|


  Am
     |-3-|    |-3-|      |-3-|    |-3-|
  Q  E E E Q  E E E   Q  E E E Q  E E E
|-0--0-0-0-0--0-0-0-|-0--0-0-0-0--0-0-0-|
|-1--1-1-1-1--1-1-1-|-1--1-1-1-1--1-1-1-|
|-2--2-2-2-2--2-2-2-|-2--2-2-2-2--2-2-2-|
|-2--2-2-2-2--2-2-2-|-2--2-2-2-2--2-2-2-|
|-0--0-0-0-0--0-0-0-|-0--0-0-0-0--0-0-0-|
|-------------------|-------------------|


  F                   C
     |-3-|    |-3-|      |-3-|    |-3-|
  Q  E E E Q  E E E   Q  E E E Q  E E E
|-1--1-1-1-1--1-1-1-|-0--0-0-0-0--0-0-0--|
|-1--1-1-1-1--1-1-1-|-1--1-1-1-1--1-1-1--|
|-2--2-2-2-2--2-2-2-|-0--0-0-0-0--0-0-0--|
|-3--3-3-3-3--3-3-3-|-2--2-2-2-2--2-2-2--|
|-3--3-3-3-3--3-3-3-|-3--3-3-3-3--3-3-3--|
|-1--1-1-1-1--1-1-1-|--------------------|


  G                   F
     |-3-|    |-3-|      |-3-|    |-3-|
  Q  E E E Q  E E E   Q  E E E Q  E E E
|-3--3-3-3-3--3-3-3-|-1--1-1-1-1--1-1-1-|
|-0--0-0-0-0--0-0-0-|-1--1-1-1-1--1-1-1-|
|-0--0-0-0-0--0-0-0-|-2--2-2-2-2--2-2-2-|
|-0--0-0-0-0--0-0-0-|-3--3-3-3-3--3-3-3-|
|-2--2-2-2-2--2-2-2-|-3--3-3-3-3--3-3-3-|
|-3--3-3-3-3--3-3-3-|-1--1-1-1-1--1-1-1-|


                      C
     |-3-|    |-3-|      |-3-|    |-3-|
  Q  E E E Q  E E E   Q  E E E Q  E E E
|-1--1-1-1-1--1-1-1-|-0--0-0-0-0--0-0-0--|
|-1--1-1-1-1--1-1-1-|-1--1-1-1-1--1-1-1--|
|-2--2-2-2-2--2-2-2-|-0--0-0-0-0--0-0-0--|
|-3--3-3-3-3--3-3-3-|-2--2-2-2-2--2-2-2--|
|-3--3-3-3-3--3-3-3-|-3--3-3-3-3--3-3-3--|
|-1--1-1-1-1--1-1-1-|--------------------|


  G                   F
     |-3-|    |-3-|      |-3-|    |-3-|
  Q  E E E Q  E E E   Q  E E E Q  E E E
|-3--3-3-3-3--3-3-3-|-1--1-1-1-1--1-1-1-|
|-0--0-0-0-0--0-0-0-|-1--1-1-1-1--1-1-1-|
|-0--0-0-0-0--0-0-0-|-2--2-2-2-2--2-2-2-|
|-0--0-0-0-0--0-0-0-|-3--3-3-3-3--3-3-3-|
|-2--2-2-2-2--2-2-2-|-3--3-3-3-3--3-3-3-|
|-3--3-3-3-3--3-3-3-|-1--1-1-1-1--1-1-1-|


                      C
     |-3-|    |-3-|      |-3-|    |-3-|
  Q  E E E Q  E E E   Q  E E E Q  E E E
|-1--1-1-1-1--1-1-1-|-0--0-0-0-0--0-0-0--|
|-1--1-1-1-1--1-1-1-|-1--1-1-1-1--1-1-1--|
|-2--2-2-2-2--2-2-2-|-0--0-0-0-0--0-0-0--|
|-3--3-3-3-3--3-3-3-|-2--2-2-2-2--2-2-2--|
|-3--3-3-3-3--3-3-3-|-3--3-3-3-3--3-3-3--|
|-1--1-1-1-1--1-1-1-|--------------------|


  F                   C
     |-3-|    |-3-|      |-3-|    |-3-|
  Q  E E E Q  E E E   Q  E E E Q  E E E
|-1--1-1-1-1--1-1-1-|-0--0-0-0-0--0-0-0-|
|-1--1-1-1-1--1-1-1-|-1--1-1-1-1--1-1-1-|
|-2--2-2-2-2--2-2-2-|-0--0-0-0-0--0-0-0-|
|-3--3-3-3-3--3-3-3-|-2--2-2-2-2--2-2-2-|
|-3--3-3-3-3--3-3-3-|-3--3-3-3-3--3-3-3-|
|-1--1-1-1-1--1-1-1-|-------------------|
|
| Gtr II (Ac. Gtr.)
| W                   W
|-------------------|-------------------|
|-------------------|-------------------|
|-------------------|-------------------|
|-------------------|-------------------|
|-------------------|-------------------|
|-------------------|-------------------|


                       2nd, 3rd & 4th Verse
                    $
                        C
     |-3-|    |-3-|        |-3-|    |-3-|
  Q  E E E Q  E E E     Q  E E E Q  E E E
|-0--0-0-0-0--0-0-0-||--0--0-0-0-0--0-0-0--|
|-1--1-1-1-1--1-1-1-||o-1--1-1-1-1--1-1-1--|
|-0--0-0-0-0--0-0-0-||--0--0-0-0-0--0-0-0--|
|-2--2-2-2-2--2-2-2-||--2--2-2-2-2--2-2-2--|
|-3--3-3-3-3--3-3-3-||o-3--3-3-3-3--3-3-3--|
|-------------------||---------------------|
|
|                          |-3-|    |-3-|
| W                     Q  E E E Q  E E E
|-------------------||--1--1-1-1-1--1-1-1--|
|-------------------||o-1--1-1-1-1--1-1-1--|
|-------------------||--2--2-2-2-2--2-2-2--|
|-------------------||--3--3-3-3-3--3-3-3--|
|-------------------||o-3--3-3-3-3--3-3-3--|
|-------------------||--1--1-1-1-1--1-1-1--|


                      Am
     |-3-|    |-3-|      |-3-|    |-3-|
  Q  E E E Q  E E E   Q  E E E Q  E E E
|-0--0-0-0-0--0-0-0-|-0--0-0-0-0--0-0-0-|
|-1--1-1-1-1--1-1-1-|-1--1-1-1-1--1-1-1-|
|-0--0-0-0-0--0-0-0-|-2--2-2-2-2--2-2-2-|
|-2--2-2-2-2--2-2-2-|-2--2-2-2-2--2-2-2-|
|-3--3-3-3-3--3-3-3-|-0--0-0-0-0--0-0-0-|
|-------------------|-------------------|
|
|    |-3-|    |-3-|      |-3-|    |-3-|
| Q  E E E Q  E E E   Q  E E E Q  E E E
|-1--1-1-1-1--1-1-1-|-1--1-1-1-1--1-1-1-|
|-1--1-1-1-1--1-1-1-|-3--3-3-3-3--3-3-3-|
|-2--2-2-2-2--2-2-2-|-2--2-2-2-2--2-2-2-|
|-3--3-3-3-3--3-3-3-|-0--0-0-0-0--0-0-0-|
|-3--3-3-3-3--3-3-3-|-------------------|
|-1--1-1-1-1--1-1-1-|-------------------|


                      C
     |-3-|    |-3-|      |-3-|    |-3-|
  Q  E E E Q  E E E   Q  E E E Q  E E E
|-0--0-0-0-0--0-0-0-|-0--0-0-0-0--0-0-0--|
|-1--1-1-1-1--1-1-1-|-1--1-1-1-1--1-1-1--|
|-2--2-2-2-2--2-2-2-|-0--0-0-0-0--0-0-0--|
|-2--2-2-2-2--2-2-2-|-2--2-2-2-2--2-2-2--|
|-0--0-0-0-0--0-0-0-|-3--3-3-3-3--3-3-3--|
|-------------------|--------------------|
|
|    |-3-|    |-3-|      |-3-|    |-3-|
| Q  E E E Q  E E E   Q  E E E Q  E E E
|-1--1-1-1-1--1-1-1-|-1--1-1-1-1--1-1-1--|
|-3--3-3-3-3--3-3-3-|-1--1-1-1-1--1-1-1--|
|-2--2-2-2-2--2-2-2-|-2--2-2-2-2--2-2-2--|
|-0--0-0-0-0--0-0-0-|-3--3-3-3-3--3-3-3--|
|-------------------|-3--3-3-3-3--3-3-3--|
|-------------------|-1--1-1-1-1--1-1-1--|


                      Am
     |-3-|    |-3-|      |-3-|    |-3-|
  Q  E E E Q  E E E   Q  E E E Q  E E E
|-0--0-0-0-0--0-0-0-|-0--0-0-0-0--0-0-0-|
|-1--1-1-1-1--1-1-1-|-1--1-1-1-1--1-1-1-|
|-0--0-0-0-0--0-0-0-|-2--2-2-2-2--2-2-2-|
|-2--2-2-2-2--2-2-2-|-2--2-2-2-2--2-2-2-|
|-3--3-3-3-3--3-3-3-|-0--0-0-0-0--0-0-0-|
|-------------------|-------------------|
|
|    |-3-|    |-3-|      |-3-|    |-3-|
| Q  E E E Q  E E E   Q  E E E Q  E E E
|-1--1-1-1-1--1-1-1-|-1--1-1-1-1--1-1-1-|
|-1--1-1-1-1--1-1-1-|-3--3-3-3-3--3-3-3-|
|-2--2-2-2-2--2-2-2-|-2--2-2-2-2--2-2-2-|
|-3--3-3-3-3--3-3-3-|-0--0-0-0-0--0-0-0-|
|-3--3-3-3-3--3-3-3-|-------------------|
|-1--1-1-1-1--1-1-1-|-------------------|


                      F
     |-3-|    |-3-|      |-3-|    |-3-|
  Q  E E E Q  E E E   Q  E E E Q  E E E
|-0--0-0-0-0--0-0-0-|-1--1-1-1-1--1-1-1--|
|-1--1-1-1-1--1-1-1-|-1--1-1-1-1--1-1-1--|
|-2--2-2-2-2--2-2-2-|-2--2-2-2-2--2-2-2--|
|-2--2-2-2-2--2-2-2-|-3--3-3-3-3--3-3-3--|
|-0--0-0-0-0--0-0-0-|-3--3-3-3-3--3-3-3--|
|-------------------|-1--1-1-1-1--1-1-1--|
|
|    |-3-|    |-3-|      |-3-|    |-3-|
| Q  E E E Q  E E E   Q  E E E Q  E E E
|-1--1-1-1-1--1-1-1-|-1--1-1-1-1--1-1-1--|
|-3--3-3-3-3--3-3-3-|-3--3-3-3-3--3-3-3--|
|-2--2-2-2-2--2-2-2-|-3--3-3-3-3--3-3-3--|
|-0--0-0-0-0--0-0-0-|-3--3-3-3-3--3-3-3--|
|-------------------|-1--1-1-1-1--1-1-1--|
|-------------------|--------------------|


  C                   G
     |-3-|    |-3-|      |-3-|    |-3-|
  Q  E E E Q  E E E   Q  E E E Q  E E E
|-0--0-0-0-0--0-0-0-|-3--3-3-3-3--3-3-3-|
|-1--1-1-1-1--1-1-1-|-0--0-0-0-0--0-0-0-|
|-0--0-0-0-0--0-0-0-|-0--0-0-0-0--0-0-0-|
|-2--2-2-2-2--2-2-2-|-0--0-0-0-0--0-0-0-|
|-3--3-3-3-3--3-3-3-|-2--2-2-2-2--2-2-2-|
|-------------------|-3--3-3-3-3--3-3-3-|
|
|    |-3-|    |-3-|      |-3-|    |-3-|
| Q  E E E Q  E E E   Q  E E E Q  E E E
|-1--1-1-1-1--1-1-1-|-0--0-0-0-0--0-0-0-|
|-1--1-1-1-1--1-1-1-|-1--1-1-1-1--1-1-1-|
|-2--2-2-2-2--2-2-2-|-0--0-0-0-0--0-0-0-|
|-3--3-3-3-3--3-3-3-|-2--2-2-2-2--2-2-2-|
|-3--3-3-3-3--3-3-3-|-3--3-3-3-3--3-3-3-|
|-1--1-1-1-1--1-1-1-|-------------------|


  F
     |-3-|    |-3-|      |-3-|    |-3-|
  Q  E E E Q  E E E   Q  E E E Q  E E E
|-1--1-1-1-1--1-1-1-|-1--1-1-1-1--1-1-1--|
|-1--1-1-1-1--1-1-1-|-1--1-1-1-1--1-1-1--|
|-2--2-2-2-2--2-2-2-|-2--2-2-2-2--2-2-2--|
|-3--3-3-3-3--3-3-3-|-3--3-3-3-3--3-3-3--|
|-3--3-3-3-3--3-3-3-|-3--3-3-3-3--3-3-3--|
|-1--1-1-1-1--1-1-1-|-1--1-1-1-1--1-1-1--|
|
|    |-3-|    |-3-|      |-3-|    |-3-|
| Q  E E E Q  E E E   Q  E E E Q  E E E
|-1--1-1-1-1--1-1-1-|-1--1-1-1-1--1-1-1--|
|-3--3-3-3-3--3-3-3-|-3--3-3-3-3--3-3-3--|
|-3--3-3-3-3--3-3-3-|-3--3-3-3-3--3-3-3--|
|-3--3-3-3-3--3-3-3-|-3--3-3-3-3--3-3-3--|
|-1--1-1-1-1--1-1-1-|-1--1-1-1-1--1-1-1--|
|-------------------|--------------------|


  C                   G
     |-3-|    |-3-|      |-3-|    |-3-|
  Q  E E E Q  E E E   Q  E E E Q  E E E
|-0--0-0-0-0--0-0-0-|-3--3-3-3-3--3-3-3-|
|-1--1-1-1-1--1-1-1-|-0--0-0-0-0--0-0-0-|
|-0--0-0-0-0--0-0-0-|-0--0-0-0-0--0-0-0-|
|-2--2-2-2-2--2-2-2-|-0--0-0-0-0--0-0-0-|
|-3--3-3-3-3--3-3-3-|-2--2-2-2-2--2-2-2-|
|-------------------|-3--3-3-3-3--3-3-3-|
|
|    |-3-|    |-3-|      |-3-|    |-3-|
| Q  E E E Q  E E E   Q  E E E Q  E E E
|-1--1-1-1-1--1-1-1-|-0--0-0-0-0--0-0-0-|
|-1--1-1-1-1--1-1-1-|-1--1-1-1-1--1-1-1-|
|-2--2-2-2-2--2-2-2-|-0--0-0-0-0--0-0-0-|
|-3--3-3-3-3--3-3-3-|-2--2-2-2-2--2-2-2-|
|-3--3-3-3-3--3-3-3-|-3--3-3-3-3--3-3-3-|
|-1--1-1-1-1--1-1-1-|-------------------|


  F
     |-3-|    |-3-|      |-3-|    |-3-|
  Q  E E E Q  E E E   Q  E E E Q  E E E
|-1--1-1-1-1--1-1-1-|-1--1-1-1-1--1-1-1--||
|-1--1-1-1-1--1-1-1-|-1--1-1-1-1--1-1-1--||
|-2--2-2-2-2--2-2-2-|-2--2-2-2-2--2-2-2--||
|-3--3-3-3-3--3-3-3-|-3--3-3-3-3--3-3-3--||
|-3--3-3-3-3--3-3-3-|-3--3-3-3-3--3-3-3--||
|-1--1-1-1-1--1-1-1-|-1--1-1-1-1--1-1-1--||
|
|    |-3-|    |-3-|      |-3-|    |-3-|
| Q  E E E Q  E E E   Q  E E E Q  E E E
|-1--1-1-1-1--1-1-1-|-1--1-1-1-1--1-1-1--||
|-3--3-3-3-3--3-3-3-|-3--3-3-3-3--3-3-3--||
|-3--3-3-3-3--3-3-3-|-3--3-3-3-3--3-3-3--||
|-3--3-3-3-3--3-3-3-|-3--3-3-3-3--3-3-3--||
|-1--1-1-1-1--1-1-1-|-1--1-1-1-1--1-1-1--||
|-------------------|--------------------||


 Chorus
  C                   F
     |-3-|    |-3-|      |-3-|    |-3-|
  Q  E E E Q  E E E   Q  E E E Q  E E E
|-0--0-0-0-0--0-0-0-|-1--1-1-1-1--1-1-1-|
|-1--1-1-1-1--1-1-1-|-1--1-1-1-1--1-1-1-|
|-0--0-0-0-0--0-0-0-|-2--2-2-2-2--2-2-2-|
|-2--2-2-2-2--2-2-2-|-3--3-3-3-3--3-3-3-|
|-3--3-3-3-3--3-3-3-|-3--3-3-3-3--3-3-3-|
|-------------------|-1--1-1-1-1--1-1-1-|
|
|    |-3-|    |-3-|      |-3-|    |-3-|
| Q  E E E Q  E E E   Q  E E E Q  E E E
|-1--1-1-1-1--1-1-1-|-1--1-1-1-1--1-1-1-|
|-1--1-1-1-1--1-1-1-|-3--3-3-3-3--3-3-3-|
|-2--2-2-2-2--2-2-2-|-3--3-3-3-3--3-3-3-|
|-3--3-3-3-3--3-3-3-|-3--3-3-3-3--3-3-3-|
|-3--3-3-3-3--3-3-3-|-1--1-1-1-1--1-1-1-|
|-1--1-1-1-1--1-1-1-|-------------------|


  C                   F
     |-3-|    |-3-|      |-3-|    |-3-|
  Q  E E E Q  E E E   Q  E E E Q  E E E
|-0--0-0-0-0--0-0-0-|-1--1-1-1-1--1-1-1--|
|-1--1-1-1-1--1-1-1-|-1--1-1-1-1--1-1-1--|
|-0--0-0-0-0--0-0-0-|-2--2-2-2-2--2-2-2--|
|-2--2-2-2-2--2-2-2-|-3--3-3-3-3--3-3-3--|
|-3--3-3-3-3--3-3-3-|-3--3-3-3-3--3-3-3--|
|-------------------|-1--1-1-1-1--1-1-1--|
|
|    |-3-|    |-3-|      |-3-|    |-3-|
| Q  E E E Q  E E E   Q  E E E Q  E E E
|-1--1-1-1-1--1-1-1-|-1--1-1-1-1--1-1-1--|
|-1--1-1-1-1--1-1-1-|-3--3-3-3-3--3-3-3--|
|-2--2-2-2-2--2-2-2-|-3--3-3-3-3--3-3-3--|
|-3--3-3-3-3--3-3-3-|-3--3-3-3-3--3-3-3--|
|-3--3-3-3-3--3-3-3-|-1--1-1-1-1--1-1-1--|
|-1--1-1-1-1--1-1-1-|--------------------|


  Am                  F
     |-3-|    |-3-|      |-3-|    |-3-|
  Q  E E E Q  E E E   Q  E E E Q  E E E
|-0--0-0-0-0--0-0-0-|-1--1-1-1-1--1-1-1-|
|-1--1-1-1-1--1-1-1-|-1--1-1-1-1--1-1-1-|
|-2--2-2-2-2--2-2-2-|-2--2-2-2-2--2-2-2-|
|-2--2-2-2-2--2-2-2-|-3--3-3-3-3--3-3-3-|
|-0--0-0-0-0--0-0-0-|-3--3-3-3-3--3-3-3-|
|-------------------|-1--1-1-1-1--1-1-1-|
|
|    |-3-|    |-3-|      |-3-|    |-3-|
| Q  E E E Q  E E E   Q  E E E Q  E E E
|-1--1-1-1-1--1-1-1-|-1--1-1-1-1--1-1-1-|
|-3--3-3-3-3--3-3-3-|-3--3-3-3-3--3-3-3-|
|-2--2-2-2-2--2-2-2-|-3--3-3-3-3--3-3-3-|
|-0--0-0-0-0--0-0-0-|-3--3-3-3-3--3-3-3-|
|-------------------|-1--1-1-1-1--1-1-1-|
|-------------------|-------------------|


             To Coda
  G                    F
     |-3-|    |-3-|       |-3-|    |-3-|
  Q  E E E Q  E E E    Q  E E E Q  E E E
|-3--3-3-3-3--3-3-3--|-1--1-1-1-1--1-1-1-|
|-0--0-0-0-0--0-0-0--|-1--1-1-1-1--1-1-1-|
|-0--0-0-0-0--0-0-0--|-2--2-2-2-2--2-2-2-|
|-0--0-0-0-0--0-0-0--|-3--3-3-3-3--3-3-3-|
|-2--2-2-2-2--2-2-2--|-3--3-3-3-3--3-3-3-|
|-3--3-3-3-3--3-3-3--|-1--1-1-1-1--1-1-1-|
|
|    |-3-|    |-3-|       |-3-|    |-3-|
| Q  E E E Q  E E E    Q  E E E Q  E E E
|-0--0-0-0-0--0-0-0--|-1--1-1-1-1--1-1-1-|
|-1--1-1-1-1--1-1-1--|-3--3-3-3-3--3-3-3-|
|-0--0-0-0-0--0-0-0--|-3--3-3-3-3--3-3-3-|
|-2--2-2-2-2--2-2-2--|-3--3-3-3-3--3-3-3-|
|-3--3-3-3-3--3-3-3--|-1--1-1-1-1--1-1-1-|
|--------------------|-------------------|


  C                   F
     |-3-|    |-3-|      |-3-|    |-3-|
  Q  E E E Q  E E E   Q  E E E Q  E E E
|-0--0-0-0-0--0-0-0-|-1--1-1-1-1--1-1-1-|
|-1--1-1-1-1--1-1-1-|-1--1-1-1-1--1-1-1-|
|-0--0-0-0-0--0-0-0-|-2--2-2-2-2--2-2-2-|
|-2--2-2-2-2--2-2-2-|-3--3-3-3-3--3-3-3-|
|-3--3-3-3-3--3-3-3-|-3--3-3-3-3--3-3-3-|
|-------------------|-1--1-1-1-1--1-1-1-|
|
|    |-3-|    |-3-|      |-3-|    |-3-|
| Q  E E E Q  E E E   Q  E E E Q  E E E
|-1--1-1-1-1--1-1-1-|-1--1-1-1-1--1-1-1-|
|-1--1-1-1-1--1-1-1-|-3--3-3-3-3--3-3-3-|
|-2--2-2-2-2--2-2-2-|-3--3-3-3-3--3-3-3-|
|-3--3-3-3-3--3-3-3-|-3--3-3-3-3--3-3-3-|
|-3--3-3-3-3--3-3-3-|-1--1-1-1-1--1-1-1-|
|-1--1-1-1-1--1-1-1-|-------------------|


  C
     |-3-|    |-3-|      |-3-|    |-3-|
  Q  E E E Q  E E E   Q  E E E Q  E E E
|-0--0-0-0-0--0-0-0-|-0--0-0-0-0--0-0-0---||
|-1--1-1-1-1--1-1-1-|-1--1-1-1-1--1-1-1--o||
|-0--0-0-0-0--0-0-0-|-0--0-0-0-0--0-0-0---||
|-2--2-2-2-2--2-2-2-|-2--2-2-2-2--2-2-2---||
|-3--3-3-3-3--3-3-3-|-3--3-3-3-3--3-3-3--o||
|-------------------|---------------------||
|
|    |-3-|    |-3-|      |-3-|    |-3-|
| Q  E E E Q  E E E   Q  E E E Q  E E E
|-1--1-1-1-1--1-1-1-|-1--1-1-1-1--1-1-1---||
|-1--1-1-1-1--1-1-1-|-1--1-1-1-1--1-1-1--o||
|-2--2-2-2-2--2-2-2-|-2--2-2-2-2--2-2-2---||
|-3--3-3-3-3--3-3-3-|-3--3-3-3-3--3-3-3---||
|-3--3-3-3-3--3-3-3-|-3--3-3-3-3--3-3-3--o||
|-1--1-1-1-1--1-1-1-|-1--1-1-1-1--1-1-1---||


 Accordion Solo
  D
       |--3--|      |--3--|        |--3--|      |--3--|
   Q   E  E  E  Q   E  E  E    Q   E  E  E  Q   E  E  E
|--2---2--2--2--2---2--2--2-|--2---2--2--2--2---2--2--2-|
|--3---3--3--3--3---3--3--3-|--3---3--3--3--3---3--3--3-|
|--2---2--2--2--2---2--2--2-|--2---2--2--2--2---2--2--2-|
|--0---0--0--0--0---0--0--0-|--0---0--0--0--0---0--0--0-|
|---------------------------|---------------------------|
|---------------------------|---------------------------|
|
|      |--3--|      |--3--|        |--3--|      |--3--|
|  Q   E  E  E  Q   E  E  E    Q   E  E  E  Q   E  E  E
|-10--10-10-10-10--10-10-10-|-10--10-10-10-10--10-10-10-|
|-12--12-12-12-12--12-12-12-|-12--12-12-12-12--12-12-12-|
|-12--12-12-12-12--12-12-12-|-12--12-12-12-12--12-12-12-|
|---------------------------|---------------------------|
|---------------------------|---------------------------|
|---------------------------|---------------------------|


  Am
       |--3--|      |--3--|        |--3--|      |--3--|
   Q   E  E  E  Q   E  E  E    Q   E  E  E  Q   E  E  E
|--0---0--0--0--0---0--0--0-|--0---0--0--0--0---0--0--0--|
|--1---1--1--1--1---1--1--1-|--1---1--1--1--1---1--1--1--|
|--2---2--2--2--2---2--2--2-|--2---2--2--2--2---2--2--2--|
|--2---2--2--2--2---2--2--2-|--2---2--2--2--2---2--2--2--|
|--0---0--0--0--0---0--0--0-|--0---0--0--0--0---0--0--0--|
|---------------------------|----------------------------|
|
|      |--3--|      |--3--|        |--3--|      |--3--|
|  Q   E  E  E  Q   E  E  E    Q   E  E  E  Q   E  E  E
|-10--10-10-10-10--10-10-10-|-10--10-10-10-10--10-10-10--|
|-10--10-10-10-10--10-10-10-|-10--10-10-10-10--10-10-10--|
|-10--10-10-10-10--10-10-10-|-10--10-10-10-10--10-10-10--|
|---------------------------|----------------------------|
|---------------------------|----------------------------|
|---------------------------|----------------------------|


  D
       |--3--|      |--3--|        |--3--|      |--3--|
   Q   E  E  E  Q   E  E  E    Q   E  E  E  Q   E  E  E
|--2---2--2--2--2---2--2--2-|--2---2--2--2--2---2--2--2-|
|--3---3--3--3--3---3--3--3-|--3---3--3--3--3---3--3--3-|
|--2---2--2--2--2---2--2--2-|--2---2--2--2--2---2--2--2-|
|--0---0--0--0--0---0--0--0-|--0---0--0--0--0---0--0--0-|
|---------------------------|---------------------------|
|---------------------------|---------------------------|
|
|      |--3--|      |--3--|        |--3--|      |--3--|
|  Q   E  E  E  Q   E  E  E    Q   E  E  E  Q   E  E  E
|-10--10-10-10-10--10-10-10-|-10--10-10-10-10--10-10-10-|
|-12--12-12-12-12--12-12-12-|-12--12-12-12-12--12-12-12-|
|-12--12-12-12-12--12-12-12-|-12--12-12-12-12--12-12-12-|
|---------------------------|---------------------------|
|---------------------------|---------------------------|
|---------------------------|---------------------------|


  Am
       |--3--|      |--3--|        |--3--|      |--3--|
   Q   E  E  E  Q   E  E  E    Q   E  E  E  Q   E  E  E
|--0---0--0--0--0---0--0--0-|--0---0--0--0--0---0--0--0--|
|--1---1--1--1--1---1--1--1-|--1---1--1--1--1---1--1--1--|
|--2---2--2--2--2---2--2--2-|--2---2--2--2--2---2--2--2--|
|--2---2--2--2--2---2--2--2-|--2---2--2--2--2---2--2--2--|
|--0---0--0--0--0---0--0--0-|--0---0--0--0--0---0--0--0--|
|---------------------------|----------------------------|
|
|      |--3--|      |--3--|        |--3--|      |--3--|
|  Q   E  E  E  Q   E  E  E    Q   E  E  E  Q   E  E  E
|-10--10-10-10-10--10-10-10-|-10--10-10-10-10--10-10-10--|
|-10--10-10-10-10--10-10-10-|-10--10-10-10-10--10-10-10--|
|-10--10-10-10-10--10-10-10-|-10--10-10-10-10--10-10-10--|
|---------------------------|----------------------------|
|---------------------------|----------------------------|
|---------------------------|----------------------------|


  C                           D
       |--3--|      |--3--|        |--3--|      |--3--|
   Q   E  E  E  Q   E  E  E    Q   E  E  E  Q   E  E  E
|--0---0--0--0--0---0--0--0-|--2---2--2--2--2---2--2--2-|
|--1---1--1--1--1---1--1--1-|--3---3--3--3--3---3--3--3-|
|--0---0--0--0--0---0--0--0-|--2---2--2--2--2---2--2--2-|
|--2---2--2--2--2---2--2--2-|--0---0--0--0--0---0--0--0-|
|--3---3--3--3--3---3--3--3-|---------------------------|
|---------------------------|---------------------------|
|
|      |--3--|      |--3--|        |--3--|      |--3--|
|  Q   E  E  E  Q   E  E  E    Q   E  E  E  Q   E  E  E
|--8---8--8--8--8---8--8--8-|-10--10-10-10-10--10-10-10-|
|-10--10-10-10-10--10-10-10-|-12--12-12-12-12--12-12-12-|
|-10--10-10-10-10--10-10-10-|-12--12-12-12-12--12-12-12-|
|---------------------------|---------------------------|
|---------------------------|---------------------------|
|---------------------------|---------------------------|


  C                           D
       |--3--|      |--3--|        |--3--|      |--3--|
   Q   E  E  E  Q   E  E  E    Q   E  E  E  Q   E  E  E
|--0---0--0--0--0---0--0--0-|--2---2--2--2--2---2--2--2--|
|--1---1--1--1--1---1--1--1-|--3---3--3--3--3---3--3--3--|
|--0---0--0--0--0---0--0--0-|--2---2--2--2--2---2--2--2--|
|--2---2--2--2--2---2--2--2-|--0---0--0--0--0---0--0--0--|
|--3---3--3--3--3---3--3--3-|----------------------------|
|---------------------------|----------------------------|
|
|      |--3--|      |--3--|        |--3--|      |--3--|
|  Q   E  E  E  Q   E  E  E    Q   E  E  E  Q   E  E  E
|--8---8--8--8--8---8--8--8-|-10--10-10-10-10--10-10-10--|
|-10--10-10-10-10--10-10-10-|-12--12-12-12-12--12-12-12--|
|-10--10-10-10-10--10-10-10-|-12--12-12-12-12--12-12-12--|
|---------------------------|----------------------------|
|---------------------------|----------------------------|
|---------------------------|----------------------------|


                                            D.S. al Coda &
  C
       |--3--|      |--3--|        |--3--|      |--3--|
   Q   E  E  E  Q   E  E  E    Q   E  E  E  Q   E  E  E
|--0---0--0--0--0---0--0--0-|--0---0--0--0--0---0--0--0--||
|--1---1--1--1--1---1--1--1-|--1---1--1--1--1---1--1--1--||
|--0---0--0--0--0---0--0--0-|--0---0--0--0--0---0--0--0--||
|--2---2--2--2--2---2--2--2-|--2---2--2--2--2---2--2--2--||
|--3---3--3--3--3---3--3--3-|--3---3--3--3--3---3--3--3--||
|---------------------------|----------------------------||
|
|      |--3--|      |--3--|        |--3--|      |--3--|
|  Q   E  E  E  Q   E  E  E    Q   E  E  E  Q   E  E  E
|--8---8--8--8--8---8--8--8-|--8---8--8--8--8---8--8--8--||
|-10--10-10-10-10--10-10-10-|-10--10-10-10-10--10-10-10--||
|-10--10-10-10-10--10-10-10-|-10--10-10-10-10--10-10-10--||
|---------------------------|----------------------------||
|---------------------------|----------------------------||
|---------------------------|----------------------------||


 Out-Chorus
  F                   C
     |-3-|    |-3-|      |-3-|    |-3-|
  Q  E E E Q  E E E   Q  E E E Q  E E E
|-1--1-1-1-1--1-1-1-|-0--0-0-0-0--0-0-0-|
|-1--1-1-1-1--1-1-1-|-1--1-1-1-1--1-1-1-|
|-2--2-2-2-2--2-2-2-|-0--0-0-0-0--0-0-0-|
|-3--3-3-3-3--3-3-3-|-2--2-2-2-2--2-2-2-|
|-3--3-3-3-3--3-3-3-|-3--3-3-3-3--3-3-3-|
|-1--1-1-1-1--1-1-1-|-------------------|
|
|    |-3-|    |-3-|      |-3-|    |-3-|
| Q  E E E Q  E E E   Q  E E E Q  E E E
|-1--1-1-1-1--1-1-1-|-1--1-1-1-1--1-1-1-|
|-3--3-3-3-3--3-3-3-|-1--1-1-1-1--1-1-1-|
|-3--3-3-3-3--3-3-3-|-2--2-2-2-2--2-2-2-|
|-3--3-3-3-3--3-3-3-|-3--3-3-3-3--3-3-3-|
|-1--1-1-1-1--1-1-1-|-3--3-3-3-3--3-3-3-|
|-------------------|-1--1-1-1-1--1-1-1-|


  F                   C
     |-3-|    |-3-|      |-3-|    |-3-|
  Q  E E E Q  E E E   Q  E E E Q  E E E
|-1--1-1-1-1--1-1-1-|-0--0-0-0-0--0-0-0-|
|-1--1-1-1-1--1-1-1-|-1--1-1-1-1--1-1-1-|
|-2--2-2-2-2--2-2-2-|-0--0-0-0-0--0-0-0-|
|-3--3-3-3-3--3-3-3-|-2--2-2-2-2--2-2-2-|
|-3--3-3-3-3--3-3-3-|-3--3-3-3-3--3-3-3-|
|-1--1-1-1-1--1-1-1-|-------------------|
|
|    |-3-|    |-3-|      |-3-|    |-3-|
| Q  E E E Q  E E E   Q  E E E Q  E E E
|-1--1-1-1-1--1-1-1-|-1--1-1-1-1--1-1-1-|
|-3--3-3-3-3--3-3-3-|-1--1-1-1-1--1-1-1-|
|-3--3-3-3-3--3-3-3-|-2--2-2-2-2--2-2-2-|
|-3--3-3-3-3--3-3-3-|-3--3-3-3-3--3-3-3-|
|-1--1-1-1-1--1-1-1-|-3--3-3-3-3--3-3-3-|
|-------------------|-1--1-1-1-1--1-1-1-|


  F                   Am
     |-3-|    |-3-|      |-3-|    |-3-|
  Q  E E E Q  E E E   Q  E E E Q  E E E
|-1--1-1-1-1--1-1-1-|-0--0-0-0-0--0-0-0--|
|-1--1-1-1-1--1-1-1-|-1--1-1-1-1--1-1-1--|
|-2--2-2-2-2--2-2-2-|-2--2-2-2-2--2-2-2--|
|-3--3-3-3-3--3-3-3-|-2--2-2-2-2--2-2-2--|
|-3--3-3-3-3--3-3-3-|-0--0-0-0-0--0-0-0--|
|-1--1-1-1-1--1-1-1-|--------------------|
|
|    |-3-|    |-3-|      |-3-|    |-3-|
| Q  E E E Q  E E E   Q  E E E Q  E E E
|-1--1-1-1-1--1-1-1-|-1--1-1-1-1--1-1-1--|
|-3--3-3-3-3--3-3-3-|-3--3-3-3-3--3-3-3--|
|-3--3-3-3-3--3-3-3-|-2--2-2-2-2--2-2-2--|
|-3--3-3-3-3--3-3-3-|-0--0-0-0-0--0-0-0--|
|-1--1-1-1-1--1-1-1-|--------------------|
|-------------------|--------------------|


  F                   G
     |-3-|    |-3-|      |-3-|    |-3-|
  Q  E E E Q  E E E   Q  E E E Q  E E E
|-1--1-1-1-1--1-1-1-|-3--3-3-3-3--3-3-3-|
|-1--1-1-1-1--1-1-1-|-0--0-0-0-0--0-0-0-|
|-2--2-2-2-2--2-2-2-|-0--0-0-0-0--0-0-0-|
|-3--3-3-3-3--3-3-3-|-0--0-0-0-0--0-0-0-|
|-3--3-3-3-3--3-3-3-|-2--2-2-2-2--2-2-2-|
|-1--1-1-1-1--1-1-1-|-3--3-3-3-3--3-3-3-|
|
|    |-3-|    |-3-|      |-3-|    |-3-|
| Q  E E E Q  E E E   Q  E E E Q  E E E
|-1--1-1-1-1--1-1-1-|-0--0-0-0-0--0-0-0-|
|-3--3-3-3-3--3-3-3-|-1--1-1-1-1--1-1-1-|
|-3--3-3-3-3--3-3-3-|-0--0-0-0-0--0-0-0-|
|-3--3-3-3-3--3-3-3-|-2--2-2-2-2--2-2-2-|
|-1--1-1-1-1--1-1-1-|-3--3-3-3-3--3-3-3-|
|-------------------|-------------------|


  F                   C
     |-3-|    |-3-|      |-3-|    |-3-|
  Q  E E E Q  E E E   Q  E E E Q  E E E
|-1--1-1-1-1--1-1-1-|-0--0-0-0-0--0-0-0--|
|-1--1-1-1-1--1-1-1-|-1--1-1-1-1--1-1-1--|
|-2--2-2-2-2--2-2-2-|-0--0-0-0-0--0-0-0--|
|-3--3-3-3-3--3-3-3-|-2--2-2-2-2--2-2-2--|
|-3--3-3-3-3--3-3-3-|-3--3-3-3-3--3-3-3--|
|-1--1-1-1-1--1-1-1-|--------------------|
|
|    |-3-|    |-3-|      |-3-|    |-3-|
| Q  E E E Q  E E E   Q  E E E Q  E E E
|-1--1-1-1-1--1-1-1-|-1--1-1-1-1--1-1-1--|
|-3--3-3-3-3--3-3-3-|-1--1-1-1-1--1-1-1--|
|-3--3-3-3-3--3-3-3-|-2--2-2-2-2--2-2-2--|
|-3--3-3-3-3--3-3-3-|-3--3-3-3-3--3-3-3--|
|-1--1-1-1-1--1-1-1-|-3--3-3-3-3--3-3-3--|
|-------------------|-1--1-1-1-1--1-1-1--|


  F                   C
     |-3-|    |-3-|      |-3-|    |-3-|
  Q  E E E Q  E E E   Q  E E E Q  E E E   W          +W
|-1--1-1-1-1--1-1-1-|-0--0-0-0-0--0-0-0-|-0--------|-(0)----*|
|-1--1-1-1-1--1-1-1-|-1--1-1-1-1--1-1-1-|-1--------|-(1)----*|
|-2--2-2-2-2--2-2-2-|-0--0-0-0-0--0-0-0-|-0--------|-(0)----*|
|-3--3-3-3-3--3-3-3-|-2--2-2-2-2--2-2-2-|-2--------|-(2)----*|
|-3--3-3-3-3--3-3-3-|-3--3-3-3-3--3-3-3-|-3--------|-(3)----*|
|-1--1-1-1-1--1-1-1-|-------------------|----------|--------*|
|
|    |-3-|    |-3-|      |-3-|    |-3-|
| Q  E E E Q  E E E   Q  E E E Q  E E E   W          +W
|-1--1-1-1-1--1-1-1-|-1--1-1-1-1--1-1-1-|-1--------|-(1)----*|
|-3--3-3-3-3--3-3-3-|-1--1-1-1-1--1-1-1-|-1--------|-(1)----*|
|-3--3-3-3-3--3-3-3-|-2--2-2-2-2--2-2-2-|-2--------|-(2)----*|
|-3--3-3-3-3--3-3-3-|-3--3-3-3-3--3-3-3-|-3--------|-(3)----*|
|-1--1-1-1-1--1-1-1-|-3--3-3-3-3--3-3-3-|-3--------|-(3)----*|
|-------------------|-1--1-1-1-1--1-1-1-|-1--------|-(1)----*|            
Submit corrections

↑ Back to top | Tablatures and chords for acoustic guitar and electric guitar, ukulele, drums are parodies/interpretations of the original songs. You may use it for private study, scholarship, research or language learning purposes only