Home » D » Delain »

Delain - Frozen Tabs

Artists:  A B C D E F G H I J K L M N O P Q R S T U V W X Y Z # 

Frozen Tabs

(ver. 2) Click to play this song!
Delain
-------------------------------------------------------------------------------
                             Frozen - Delain
-------------------------------------------------------------------------------
Tuning: Standard
Thanks to Marts (umosay) for helping with the arpeggios at the end.

e|-----------------------------------------------------------------------------|
B|-------/6-6-8-9-8b9r8-6-h8p6---8b9-<8>~~-<9>~~-------------------------------|
G|-/10~~-----------------------8-----------------10--5-5-----------------------|
D|--------------------------------------------------------8-8--6-5h6p5---------|
A|---------------------------------------------------------------------6-3~~---|
E|-----------------------------------------------------------------------------|

e|----------------------------------------------------------------------------------------|
B|----------------------14-16-17----------15-17-18--/18-20-20b21r20-18-20p18----20b21r20~-|
G|-15-<15b>~~--13-15-16----------14-16-17------------------------------------20-----------|
D|----------------------------------------------------------------------------------------|
A|----------------------------------------------------------------------------------------|
E|----------------------------------------------------------------------------------------|

e|----------------20p16----------16-18p14----------14-16p13------------------|
B|-20p18-20b21~~~-------18----------------16----------------14---------------|
G|-------------------------17----------------15----------------13~~~-/12-----|
D|---------------------------------------------------------------------------|
A|---------------------------------------------------------------------------|
E|---------------------------------------------------------------------------|

e|--15-----------------------------------------------------------------------|
B|-----18-16-15-16-15h16p15--------------------------------------------------|
G|--------------------------17-----------------------------------------------|
D|---------------------------------------------------------------------------|
A|---------------------------------------------------------------------------|
E|---------------------------------------------------------------------------|

| /  slide up
| \  slide down
| h  hammer-on
| p  pull-off
| ~  vibrato
| +  harmonic
| x  Mute note
===============================================================================
            
Submit corrections

↑ Back to top | Tablatures and chords for acoustic guitar and electric guitar, ukulele, drums are parodies/interpretations of the original songs. You may use it for private study, scholarship, research or language learning purposes only