» » »

Deicide - When Satan Rules His World solo Tabs

Artists:  A B C D E F G H I J K L M N O P Q R S T U V W X Y Z # 

When Satan Rules His World solo Tabs

(ver. 1) Click to play this song!
Deicide
 Rating:
4.3/5 (25 votes)

 When Satan Rules His World solo lessons Tabs too difficult? Try these video lessons and learn fast
 
                SOLO 1 BRIAN
  N.H. BAR             BAR
D|-----------------------------------------------------------------------|
A|-----------------------------------------------------------------------|
F|-4///\\\\/\/\/\/\\---/9///\/\/\/\\-------------------------------------|
D|---------------------------------------------------------8-9-11--------|
G|-------------------------------------------7-8-10-7-8-10--------7-8-10-|
D|-------------------------------------6-7-9-----------------------------|


D|-------------------------------10-12-13^^---9-10-12-10-9--------------------|
A|-----------------------9-11-12---------------------------12-11-9-11-12-11-9-|
F|---------------9-10-12------------------------------------------------------|
D|-8-9-11-8-9-11--------------------------------------------------------------|
G|----------------------------------------------------------------------------|
D|----------------------------------------------------------------------------|


D|----------------------------------------------------------------------------|
A|----------------------------------------------------------------------------|
F|-12-10-9-10-12-10-9---------------------------------------------------------|
D|--------------------11-9-8-9-11-9-8----------------------------------8-9-11-|
G|------------------------------------10-8-7-8-10-8-7-----------7-8-10--------|
D|----------------------------------------------------9-7-6-7-9---------------|

                   N.H. BAR
D|------------------------------------------|
A|------------------------------------------|
F|------------------6////\/\/\/\/\/\/\\-----|
D|-9-8--------------------------------------|
G|-----10-8-7-------------------------------|
D|------------9-7-6-------------------------|




 RIFF 4 x2 UNDER SOLO 1

 RIFF 4 CHORUS x2

 RIFF 2A INTO SOLO x1


 SOLO 2 BRIAN
  N.H. BAR           N.H. BAR      S.H. BAR  S.H. BAR  S.H. BAR  S.H. BAR
D|------------------------------------------------------------------------|
A|------------------------------------------------------------------------|
F|-6///\/\/\/\/\/\\---4///\\\\\\\---2//\/\\---2//\/\\---2//\/\\---2//\/\\-|
D|------------------------------------------------------------------------|
G|------------------------------------------------------------------------|
D|------------------------------------------------------------------------|

  N.H. BAR
D|---------------------------|
A|---------------------------|
F|-3//\\\\/\\\\/\\\/\/\\-----|
D|---------------------------|
G|---------------------------|
D|---------------------------|            
Submit corrections


        When Satan Rules His World solo lessons Hard to play? Try these video lessons and learn fast When Satan Rules His World solo lessons
        
↑ Back to top | Tablatures and chords for acoustic guitar and electric guitar, ukulele, drums are parodies/interpretations of the original songs. You may use it for private study, scholarship, research or language learning purposes only