Home » D » Deicide »

Deicide - Serpents Of The Light Tabs

Artists:  A B C D E F G H I J K L M N O P Q R S T U V W X Y Z # 

Serpents Of The Light Tabs

(ver. 1) Click to play this song!
Deicide
Serpents of the light by Deicide
 
Tune down 1/2 step 
******=Palm muting
++++++=Tremolo picking

Intro 
|------------------------------------------------------------| 
|------------------------------------------------------------| 
|--------------------------------------------------------5555| 
|-----------4444------22225555----------4444-----22225555----| 
|-2-22225555----2-2222--------2-22225555---------------------| 
|-0-------------0-------------0--------------0000------------| 
PM* ************* ************* *****************************
TR  ++++++++++++  ++++++++++++  +++++++++++++++++++++++++++++

Riff A 
|------------------------------------------------------------| 
|------------------------------------------------------------| 
|--------------------------------------------------------5555| 
|-----------4444------22225555----------4444-----22225555----| 
|-2-22225555----2-2222--------2-22225555---------------------| 
|-0-------------0-------------0--------------0000------------| 
PM* ************* ************* *****************************
TR  ++++++++++++  ++++++++++++  +++++++++++++++++++++++++++++


|------------------------------------------------------------| 
|------------------------------------------------------------| 
|----------------------------------------------------55558888| 
|-----------4444------22225555----------4444-22225555--------| 
|-2-22225555----2-2222--------2-22225555---------------------| 
|-0-------------0-------------0------------------------------| 
PM* ************* ************* *****************************
TR  ++++++++++++  ++++++++++++  +++++++++++++++++++++++++++++

|------------------------------------------------------------| 
|------------------------------------------------------------| 
|--------------------------------------------------------5555| 
|-----------4444------22225555----------4444-----22225555----| 
|-2-22225555----2-2222--------2-22225555---------------------| 
|-0-------------0-------------0--------------0000------------| 
PM* ************* ************* *****************************
TR  ++++++++++++  ++++++++++++  +++++++++++++++++++++++++++++

(End Riff A) 
|------------------------------------------------------------| 
|------------------------------------------------------------| 
|----------------------------------------------------55554444| 
|-----------4444------22225555----------4444-22225555--------| 
|-2-22225555----2-2222--------2-22225555---------------------| 
|-0-------------0-------------0------------------------------| 
PM* ************* ************* *****************************
TR  ++++++++++++  ++++++++++++  +++++++++++++++++++++++++++++

(Riff B) 
|----------------------------------------------------------------------------
|---------------------------------------------------------------------------- 
|---------------------------------------------------------------------------- 
|---------------------------------------------------------------------------- 
|111111------000000---------------------------------------------------------- 
|------222222-----0000001111444433333366666622222255555500001111444444333333-| 
(TREMOLO PICK & MUTE ALL)

|---------------------------------------------------------------------------- 
|----------------------------------------------------------------------------
|----------------------------------------------------------------------------
|---------------------------------------------------------------------------- 
|111111------0000------------------------------------------------------------ 
|------222222---000011111144444433333366666622225555000000111111444444333333| 
TREM & MUTE

|------------------------------------------------------------------------| 
|------------------------------------------------------------------------| 
|------------------------------------------------------------------------| 
|------------------------------------------------------------------------| 
|1111----000000----------------------------------------------------------| 
|----2222------0000001111114444443333666622222255555500000011111144443333| 
TREM & MUTE

(End Riff B) 
|--------------------------------| 
|--------------------------------| 
|--------------------------------| 
|--------------------------------| 
|111111------000000--------------| 
|------222222------00000011114444| 
TREM & MUTE

(Riff C) 
|----------------------------------------------------------------| 
|----------------------------------------------------------------| 
|----------------------------------------------------------------| 
|----------------------------------------------------------------| 
|------------2222------------1111------------0000----33333333----| 
|000000000000----333333333333----222222222222----1111--------1111| 
T & M

|----------------------------------------------------------------| 
|----------------------------------------------------------------| 
|----------------------------------------------------------------| 
|----------------------------------------------------33333333----| 
|------------2222------------1111------------0000------------3333| 
|000000000000----333333333333----222222222222----1111------------| 
T & M

|----------------------------------------------------------------| 
|----------------------------------------------------------------| 
|----------------------------------------------------------------| 
|----------------------------------------------------33333333----| 
|------------2222------------1111------------0000------------3333| 
|000000000000----333333333333----222222222222----1111------------| 
T & M

(End Riff C) 
|------------------------------------------------------------| 
|------------------------------------------------------------| 
|------------------------------------------------------------| 
|------------------------------------------------------------| 
|------------2222------------1111------------0000-3----------| 
|444444444444----333333333333----222222222222-----1----------| 
T & M

Repeat Riff A Repeat Riff B Repeat Riff C Repeat Riff A Riff D 

|----------------------------------------------------------------| 
|----------------------------------------------------------------| 
|----------------------------------------------------------------| 
|----------------------------------------------------------------| 
|------333333000000222222--------------333333000000222222----5555| 
|222222------------------33335555222222------------------3333----| 
T & M

Play 3 times (end Riff D) 
|------------------------------------------------| 
|------------------------------------------------| 
|------------------------------------------------| 
|------------------------------------------------| 
|------333333000000222222111111------------222222| 
|222222------------------------111111444444------| 
T & M

|------------------------------------------------------------| 
|------------------------------------------------------------| 
|------------------------------------------------------------| 
|------------------------------------------------------------| 
|111111------------222222------111111------------222222111111| 
|------111111444444------333333------111111444444------------ 
T & M

|------------------------------------------------------------| 
|------------------------------------------------------------| 
|------------------------------------------------------------| 
|------------------------------------------------------------| 
|------------222222111111------------222222------111111------| 
|111111444444------------111111444444------333333------111111| 
T & M

|------------------------------------------------------------|
|------------------------------------------------------------| 
|------------------------------------------------------------| 
|------------------------------------------------------------| 
|------222222111111------------222222111111------------222222| 
|444444------------111111444444------------111111444444------| 
T & M

|------------------------------| 
|------------------------------| 
|------------------------------| 
|------------------------------| 
|------111111------------222222| 
|333333------111111444444------|
            
Submit corrections

↑ Back to top | Tablatures and chords for acoustic guitar and electric guitar, ukulele, drums are parodies/interpretations of the original songs. You may use it for private study, scholarship, research or language learning purposes only