» » »

Defiance - Burn Tabs

Artists:  A B C D E F G H I J K L M N O P Q R S T U V W X Y Z # 

Burn Tabs

(ver. 1) Click to play this song!
Defiance
 Rating:
4/5 (4 votes)

 Burn lessons Tabs too difficult? Try these video lessons and learn fast
 
                Intro:
e|-------------------|
B|-------------------|
G|-------------------| 4x
D|---9--9--9--9------|
A|---9--9--9--9------|
E|---7--7--7--7------|

e|----------------------------------------------------------------|
B|----------------------------------------------------------------|
G|----------------------------------------------------------------| 4x
D|---9-9-9-9-9-9-9-11-9-11-9--12-12-12-12-12-12-12-14-12-14-12----|
A|----------------------------------------------------------------|
E|----------------------------------------------------------------|

Intro/Verse:
e|-------------------|
B|-------------------|
G|------7-----7------|
D|---9--7--7--7--7---|
A|---9--5--7--5--7---|
E|---7-----5-----5---|

Bridge:
e|-----------------|
B|-----------------|
G|-----------------|
D|---9-9-9---------|
A|---9-9-9---------|
E|---7-7-7---------|
  (palm muted)

Chorus:
e|----------------|
B|----------------|
G|------7---------|
D|---5--7--9------|
A|---5--5--9------|
E|---3-----7------|
            
Submit corrections


        Burn lessons Hard to play? Try these video lessons and learn fast Burn lessons
        
↑ Back to top | Tablatures and chords for acoustic guitar and electric guitar, ukulele, drums are parodies/interpretations of the original songs. You may use it for private study, scholarship, research or language learning purposes only