Home » D » Defeater »

Defeater - White Oak Doors Tabs

Artists:  A B C D E F G H I J K L M N O P Q R S T U V W X Y Z # 

White Oak Doors Tabs

(ver. 1) Click to play this song!
Defeater
WHITE OAK DOORS OFF OF Defeaters 2ND FULL LENGTH

Almost perfect, except the ending is Not so perfect, but managable.

STANDARD D
Im not sure what the name for the effect is on the intro, im pretty sure its auto swell 
or something rather.

Intro:
d---------------------------------|
A-0-------------------------------|
F-0-------------------------------|
C---------------------------------|
G---------------------------------|
D---------------------------------|


d-0-------------------------------|
A-10------------------------------|
F-0-------------------------------|
C---------------------------------|
G---------------------------------|
D---------------------------------|


d-0-------------------------------|
A-5-------------------------------|
F---------------------------------|
C---------------------------------|
G---------------------------------|
D---------------------------------|


d-0-------------------------------|
A-5-------------------------------|
F-0-------------------------------|
C---------------------------------|
G---------------------------------|
D---------------------------------|

REPEAT 5x
Fade out with

d---------------------------------|
A-0-------------------------------|
F-0-------------------------------|
C---------------------------------|
G---------------------------------|
D---------------------------------|

VERSISH PART
d--7--7--7-7--7--7----------------|
A---0--0----0--0------------------|
F---------------------------------|
C---------------------------------|
G-7--7--7-7--7--7-----------------|
D---------------------------------|




d--7--7--7-5--5--5----------------|
A---0--0----0--0------------------|
F---------------------------------|
C---------------------------------|
G---------------------------------|
D-5--5--5-5--5--5-----------------|


d--3--3--3-5--5--3----------------|
A---0--0----0--0------------------|
F---------------------------------|
C---------------------------------|
G-3--3--3-3--3--3-----------------|
D---------------------------------|


d--2--2--2-3--3--2----------------|
A---0--0----0--0------------------|
F---------------------------------|
C---------------------------------|
G-2--2--2-2--2--2-----------------|
D---------------------------------|
REPEAT x4

ENDING ;
THIS PART IS IFFY, ITS HARD TO TELL HOW CORRECT THE RHYTHM GUITAR PART IS OVER THE SNARE.
As well there is a little guitar fill after both the parts that I couldn't quite make out.

hold the notes each time after you pluck them in this section.
I prefer to play it all with my fingers to make it sound as similar as possible
GTR 1

d---------------------------------|
A---------------------------------|
F-4-----4----2--------------------|
C-2-x16-0-x8-0-x8-----------------|
G---------------------------------|
D---------------------------------|

d---------------------------------|
A-----------5----3----------------|
F-5----4--------------------------|
C---------------------------------|
G-0-x8-0-x8-3-x8-3-x8-------------|
D---------------------------------|

GTR 2
d---------------------------------|
A-0-----0-----1----0----3---------|
F-4 x16-2-x16-2-x8-2-x4-2-x4------|
C---------------------------------|
G---------------------------------|
D---------------------------------|

d---------------------------------|
A--5----3-------------------------|
F--4-x8-4-x8----------------------|
C---------------------------------|
G---------------------------------|
D---------------------------------|

GTR 3
d-3-5-3-5-------------------------|
A----------------5-7-5-7----------|
F---------------------------------|
C---------------------------------|
G---------------------------------|
D---------------------------------|

d-2-3-2-3-------------------------|
A----------------3-5-3-5----------|
F---------------------------------|
C---------------------------------|
G---------------------------------|
D---------------------------------|

Keep in mind this is all played at once
Sorry, the ending is kinda dumbed down, but the guitar is so subtle, its hard to get a 
feel for what chords are going on.


check out my band/ FACEBOOK.COM/HHOGWASH
            
Submit corrections

↑ Back to top | Tablatures and chords for acoustic guitar and electric guitar, ukulele, drums are parodies/interpretations of the original songs. You may use it for private study, scholarship, research or language learning purposes only