» » »

Default - Somewhere Tabs

Artists:  A B C D E F G H I J K L M N O P Q R S T U V W X Y Z # 

Somewhere Tabs

(ver. 1) Click to play this song!
Default
 Rating:
4/5 (4 votes)

 Somewhere lessons Tabs too difficult? Try these video lessons and learn fast
 
                There could be two guitars, but I just tabbed it as one
Guitar I – Electric (Distorted) – Standard Tuning
Guitar II – Electric (Distorted) – Standard Tuning



INTRO
		Guitar I (Distorted)
e --------------------------------------------------\
B -------------------------------------------------- \
G ---43-6P4-----------------------------------------  \
D 4----------4--------------------------------------   X8
A 4-------------------------------------------------  /
E 2------------------------------------------------- /

END INTRO

VERSE
		Guitar I (Distorted)
e --------------------------------------------------\
B -------------------------------------------------- \
G ---43-6P4-----------------------------------------  \
D 4----------4--------------------------------------   X8
A 4-------------------------------------------------  /
E 2------------------------------------------------- /

END VERSE

PRE-CHORUS
		Guitar I (Distorted)
e ----------------------------------------------------\
B ---------------------------------------------------- \
G -----------------43-6p4----43-6p4-------------------  \
D 7---9---2---4----------4---------------------------- X2
A 7---9---2---4----------4----------------------------  /
E 5---7---0---2----------2---------------------------- /

END PRE-CHORUS

CHORUS
		Guitar I (Distorted)
e ----------------------------------------------------------\
B ---------------------------------------------------------- \
G 7------------------7--------------------------------------  \ 
D 7--7---9---4---7---7---9---4------------------------------  X2
A 5--7---9---4---7---5---9---4------------------------------  /
E ---5---7---2---5-------7---2------------------------------ /

END CHORUS

BRIDGE
		Guitar I (Distorted)
e ---------------------------------------------\
B --------------------------------------------- \
G ---------------------------------------------  \
D ---------------------------------------------   X4
A ---------------------------------------------  /
E -2-5-2-0-2---2-5-2-0-2----------------------- /

END BRIDGE

GO BACK AND PLAY HALF OF INTRO, THEN VERSE, THEN PRE CHORUS, THEN CHORUS, THEN BRIDGE AGAIN
            
Submit corrections


        Somewhere lessons Hard to play? Try these video lessons and learn fast Somewhere lessons
        
↑ Back to top | Tablatures and chords for acoustic guitar and electric guitar, ukulele, drums are parodies/interpretations of the original songs. You may use it for private study, scholarship, research or language learning purposes only