» » »

Default - Slow Me Down Tabs

Artists:  A B C D E F G H I J K L M N O P Q R S T U V W X Y Z # 

Slow Me Down Tabs

(ver. 1) Click to play this song!
Default
 Rating:
4/5 (4 votes)

 Slow Me Down lessons Tabs too difficult? Try these video lessons and learn fast
 
                Tuning:  Dropped D

Intro/Verses
       verses are light           or
e|--------------------------------|-----------------------------------------------|
B|---8-8--8-8-8----8-8--8-8-8-----|-----------------------------------------------|
G|---7-7--7-7-7~---7-7--7-7-7~----|--12-12--12-12-12~---either you want to play---|
D|---4-4--5-5-5~---4-4--5-5-5~----|--12-12--12-12-12~---it sounds the same--------|
A|--------------------------------|---9-9---10-10-10~-----------------------------|
D|--------------------------------|-----------------------------------------------|

Chorus
             B5                   C5            C5 minor (in the last couple choruses
e|---------------------------------------------|-------| the B5 is exchanged for 
B|---------------------------------------------|-------| the C5 minor power chord)
G|---4-4-4-4-4-4-4-4-4-4--5-5-5-5-5-5-5-5-5-5--|---4---|
D|---4-4-4-4-4-4-4-4-4-4--5-5-5-5-5-5-5-5-5-5--|---5---|
A|---2-2-2-2-2-2-2-2-2-2--3-3-3-3-3-3-3-3-3-3--|---2---|
D|---------------------------------------------|-------|

Bridge

e|-----------------------------------------------|
B|-----------------------------------------------|
G|-----------------------------------------------|
D|-----------------------------------------------|
A|---------------5-----5---------------5-----5---|
D|---5p3-3-5p3-5---5-5-----5p3-3-5p3-5---5-5-----|

Solo  x2

e|------------------------------------------------------|
B|------------------------------------------------------|
G|------------------------------------------------------|
D|---------------5----------------5-----3x3x3x--5x5x5x--|
A|-----------------5----------------5---3x3x3x--5x5x5x--|
D|---5p3-3-5p3-5------5p3-5-5p3-5-------3x3x3x--5x5x5x--|

That's it took me awhile to enter tabs into the site cause of computer problems
I'll try to get some of The Fallout tabs in to you guys if I can, I can tab but trouble getting them in. Please this tab and comment on too if you could. Thanx.
            
Submit corrections


        Slow Me Down lessons Hard to play? Try these video lessons and learn fast Slow Me Down lessons
        
↑ Back to top | Tablatures and chords for acoustic guitar and electric guitar, ukulele, drums are parodies/interpretations of the original songs. You may use it for private study, scholarship, research or language learning purposes only