» » »

Default - Deny Riffs Tabs

Artists:  A B C D E F G H I J K L M N O P Q R S T U V W X Y Z # 

Deny Riffs Tabs

(ver. 1) Click to play this song!
Default
 Rating:
4/5 (4 votes)

 Deny Riffs lessons Tabs too difficult? Try these video lessons and learn fast
 
                Tuning: EADGBe

some people get this part of the song wrong. 
This one is accurate...


INTRO & INTERLUDE

e|--3--1----0--1-0-----------------------
B|-----------------------------0--1-0----
G|---------------------2--0--------------  X2
D|0--0-----------------------------------
A|--------3--3----3----------------------
E|-------------------3--3----3--3-----3--

VERSES

e|--3--1-----------0--1-0-----0--1-0-----
B|---------------------------------------
G|---------2--0--------------------------  X4
D|0--0-----------------------------------
A|---------------3--3----3--3--3----3----
E|-------3--3----------------------------
            
Submit corrections


        Deny Riffs lessons Hard to play? Try these video lessons and learn fast Deny Riffs lessons
        
↑ Back to top | Tablatures and chords for acoustic guitar and electric guitar, ukulele, drums are parodies/interpretations of the original songs. You may use it for private study, scholarship, research or language learning purposes only