Home » D » Default »

Default - All Over Me Bass

Artists:  A B C D E F G H I J K L M N O P Q R S T U V W X Y Z # 

All Over Me Bass

(ver. 1) Click to play this song!
Default
-------------------------------------------------------------------------------
-------------------------------------------------------------------------------


This is my first tab, 
for the most part this song is very simple 
play although the song itself is great.

I hope you enjoy the tab, please contact me at my e-mail 
if you notice any problems/issues so I can fix them.

I'm also pretty sure the song is in drop D though it sounds correct 
to me as it is.

Tuning: Standard (EADG)

Intro (00:06)
G|----------------------------------------|
D|----------------------------------------|
A|--------------------2/55555----2/55555--| (x2)
E|-2222222--5555555-----------------------|

Verse (00:17)
G|----------------------------------------------------|
D|----------------------------------------------------|
A|----------------------------------------55----------|
E|--55--------5500---------0133---------33------------|

G|------------------------------------------------------|
D|------------------------------------------------------|
A|-----------------------------------------555555555555-|
E|-2/55555555555-000000000000-333333333333--------------|

G|---------------------------------|
D|---------------------------------|
A|-777777777777777-999999999999999-|
E|---------------------------------|

G|---------------------------------|
D|-----------------777777777777777-|
A|-777777777777777-----------------|
E|---------------------------------|

G|------------------------------------|
D|------------------------------------|
A|--222222222222222/5555555555555555--|
E|------------------------------------|

Chorus (00:58)

G|----------------------------------------|
D|----------------------------------------|
A|--------------------2/55555----2/55555--| (x2)
E|-2222222--5555555-----------------------|

G|----------------------------------------|
D|----------------------------------------|
A|--------------------2/55555----2/55555--|
E|-222------555---------------------------|

G|----------------------------------------|
D|----------------------------------------|
A|--------------------2/55555----2/55555--|
E|-2222222--5555555-----------------------|

Verse 2  (01:22)

G|----------------------------------------------------|
D|----------------------------------------------------|
A|----------------------------------------55----------|
E|--55--------5500---------0133---------33------------|

G|------------------------------------------------------|
D|------------------------------------------------------|
A|-----------------------------------------555555555555-|
E|-2/55555555555-000000000000-333333333333--------------|

G|---------------------------------|
D|---------------------------------|
A|-777777777777777-999999999999999-|
E|---------------------------------|

G|---------------------------------|
D|-----------------777777777777777-|
A|-777777777777777-----------------|
E|---------------------------------|

G|------------------------------------|
D|------------------------------------|
A|--222222222222222/5555555555555555--|
E|------------------------------------|

Chorus 2 (02:09)

G|----------------------------------------|
D|----------------------------------------|
A|--------------------2/55555----2/55555--| (x2)
E|-2222222--5555555-----------------------|

G|----------------------------------------|
D|----------------------------------------|
A|--------------------2/55555----2/55555--|
E|-222------555---------------------------|

G|----------------------------------------|
D|----------------------------------------|
A|--------------------2/55555----2/55555--|
E|-2222222--5555555-----------------------|

Guitar Solo (02:34)

G|---------------------------------|
D|---------------------------------|
A|---------------------------------|
E|-22-00-55-00-2-00-22-00-55-00-2--|

G|---------------------------------|
D|---------------------------------|
A|---------------------------5-----| Let the D ring
E|-00-22-00-55-00-2-00-22-00-------|

Chorus 3 (02:52)

G|----------------------------------------|
D|----------------------------------------|
A|--------------------2/55555----2/55555--| (x2)
E|-2222222--5555555-----------------------|

G|----------------------------------------|
D|----------------------------------------|
A|--------------------2/55555----2/55555--|
E|-222------555---------------------------|

G|----------------------------------------|
D|----------------------------------------|
A|--------------------2/55555----2/55555--| (x4)
E|-2222222--5555555-----------------------|

G|----------------------------------------|
D|----------------------------------------|
A|--------------------5~------------------|
E|-222------555---------------------------|


| /  slide up
| \  slide down
| h  hammer-on
| p  pull-off
| ~  vibrato
| +  harmonic
| x  Mute note
===============================================================================
            
Submit corrections

↑ Back to top | Tablatures and chords for acoustic guitar and electric guitar, ukulele, drums are parodies/interpretations of the original songs. You may use it for private study, scholarship, research or language learning purposes only