» » »

Deerhunter - Memory Boy Tabs

Artists:  A B C D E F G H I J K L M N O P Q R S T U V W X Y Z # 

Memory Boy Tabs

(ver. 2) Click to play this song!
Deerhunter
 Rating:
4/5 (4 votes)

 Memory Boy lessons Tabs too difficult? Try these video lessons and learn fast
 
                Intro
e----------14--12--11--------------------------------------|
b-----12-----------------12----14----12--11--12--14--------|
g----------------------------------------------------------|
d----------------------------------------------------------|
a----------------------------------------------------------|
E----------------------------------------------------------| x 2

"Did you stick with me..."
e--------11-----------------------------12---------------------|
b-----12------------14--------------------------------14-------|
g--11-----------11------13---------13---------------------13---|
d------------------------------14----------------14------------|
a--------------------------------------------------------------|
E--------------------------------------------------------------| x 4

"It's not a house anymore..."
(This part is hard to hear, I kinda made it up.)

e----------------------------------------------------------|
b---------9-------9----------------11-------9--------------|
g------9-------------9----------9--------------9-----------|
d---11---------11-----------11-----------11----------------|
a----------------------------------------------------------|
E----------------------------------------------------------| x 4

(break)
e--------11------------------|
b-----12-------------14--12--|
g--11------------11----------|
d----------------------------|
a----------------------------|
E----------------------------| x 4

"That October..."
e--------11-----------------------------12---------------------|
b-----12------------14--------------------------------14-------|
g--11-----------11------13---------13---------------------13---|
d------------------------------14----------------14------------|
a--------------------------------------------------------------|
E--------------------------------------------------------------| x 4

"It's not a house anymore..."
(Same as before)
e----------------------------------------------------------|
b---------9-------9----------------11-------9--------------|
g------9-------------9----------9--------------9-----------|
d---11---------11-----------11-----------11----------------|
a----------------------------------------------------------|
E----------------------------------------------------------| x 4

"Try to recognize your son..."
(Just repeat these chords with the music.)
e------11----9-------------|
b------12----9-------------|
g------13----10------------|
d------13----11------------|
a------11----11------------|
E------------9-------------|

"He's gone, gone, gone, etc..."
e----------------------------------------------------------|
b---------9-------9----------------11-------9--------------|
g------9-------------9----------9--------------9-----------|
d---11---------11-----------11-----------11----------------|
a----------------------------------------------------------|
E----------------------------------------------------------| x 2

"Is there anyone who wants to see the sun go down"
(Repeat these chords)
e------11----9-------------|
b------12----9-------------|
g------13----10------------|
d------13----11------------|
a------11----11------------|
E------------9-------------|

"down down down etc"
e----------------------------------------------------------|
b---------9-------9----------------11-------9--------------|
g------9-------------9----------9--------------9-----------|
d---11---------11-----------11-----------11----------------|
a----------------------------------------------------------|
E----------------------------------------------------------| x 2

Outro
e----------14--12--11--------------------------------------|
b-----12-----------------12----14----12--11--12--14--------|
g----------------------------------------------------------|
d----------------------------------------------------------|
a----------------------------------------------------------|
E----------------------------------------------------------| x 2

Ending chord
e-----11--|
b-----12--|
g-----11--|
d---------|
a---------|
E---------|


            
Submit corrections


        Memory Boy lessons Hard to play? Try these video lessons and learn fast Memory Boy lessons
        
↑ Back to top | Tablatures and chords for acoustic guitar and electric guitar, ukulele, drums are parodies/interpretations of the original songs. You may use it for private study, scholarship, research or language learning purposes only