Home » D » Deep Blue Something »

Deep Blue Something - Breakfast At Tifannys Tabs

Artists:  A B C D E F G H I J K L M N O P Q R S T U V W X Y Z # 

Breakfast At Tifannys Tabs

(ver. 1) Click to play this song!
Deep Blue Something
Intro

D Dsus G Asus4 D x 2

Verse 1

D     Dsus   G         Asus4      D    Dsus  G      Asus4
You say that we've got nothing in common, no common ground
D     Dsus
to start from,
    G      Asus4     D   Dsus   G    Asus4
and we're falling apart.
D     Dsus     G         Asus4      D    Dsus  G      Asus4
You'll say the world has come between us, our lives have
D     Dsus
come between us,
      G      Asus4         D   Dsus   G    Asus4
still I know you just don't care.


CHORUS:
       D                 A            G
   And I said what about Breakfast at Tiffanys?
       D                A          G
   She said I think I remember the film
          D                     A          G
   And as I recall, I think, we both kinda liked it
       D                       A               G
   And I said, well that's the one thing we've got


After the chorus comes this:
   E|-------------------------------------|
   B|-------------------------------------|
   G|--0-0-0------------------------------|
   D|---------4--2--0-------0-----2--0----|
   A|--------------------2-----4----------|
   E|-------------------------------------|

Verse 2

D     Dsus       G    Asus4      D    Dsus  G      Asus4
I see you're the only one who knew me and now your eyes see
D     Dsus
through me, I
G     Asus4 D   Dsus   G     Asus4
guess I was wrong.
D     Dsus      G         Asus4    D    Dsus  G
So what now it's plain to see were over and I hate it when
Asus4      D   Dsus
things are over
      G      Asus4     D   Dsus   G    Asus4
and so much is left undone.


CHORUS:
       D                 A            G
   And I said what about Breakfast at Tiffanys?
       D                A          G
   She said I think I remember the film
          D                     A          G
   And as I recall, I think, we both kinda liked it
       D                       A               G
   And I said, well that's the one thing we've got

REPEAT VERSE 1
REPEAT VERSE 2
REPEAT CHORUS

GUITAR-SOLO:
           D             G     A     D     G     A
   E|------------------------------------------------|
   B|------------------------------------------------|
   G|--0-0-0-----------------------------------------|
   D|---------4--2--0-------0-----2--0---------------|
   A|--------------------2-----4-----------2---2-4---|
   E|----------------------------------------3-------|

           D             G     A     D     G     A
   E---3-3-3--2--0----------------0-----------------|
   B----------------3-------3--2-----3-----------2--|
   G---------------------4-----------------4-0-4----|
   D------------------------------------------------|
   A------------------------------------------------|
   E------------------------------------------------|

REPEAT CHORUS TWICE

   OUTRO:
           D             G     A     D     G     A
   E---3-3-3--2--0----------------0-----------------|
   B----------------3-------3--2-----3-----------2--|
   G---------------------4-----------------4-0-4----|
   D------------------------------------------------|
   A------------------------------------------------|
   E------------------------------------------------|
           D             G     A     D     G     A
   E---3-3-3--2--0----------------0-----------------|
   B----------------3-------3--2-----3-----------2--|
   G---------------------4-----------------4-0-4----|
   D------------------------------------------------|
   A------------------------------------------------|
   E------------------------------------------------|            
Submit corrections

↑ Back to top | Tablatures and chords for acoustic guitar and electric guitar, ukulele, drums are parodies/interpretations of the original songs. You may use it for private study, scholarship, research or language learning purposes only