» » »

Decyfer Down - Moving On Tabs

Artists:  A B C D E F G H I J K L M N O P Q R S T U V W X Y Z # 

Moving On Tabs

(ver. 1) Click to play this song!
Decyfer Down
 Rating:
4/5 (4 votes)

 Moving On lessons Tabs too difficult? Try these video lessons and learn fast
 
                -----------------------------------------------------------------------------
-----------------------------------------------------------------------------

Tuning: Drop D

Chords
     D   A   C   G
e|---2-------0---3---|
B|---3---2---4---3---|
G|---2---2---0---0---|
D|---0---2---2---0---|
A|-------0---3---2---|
D|-----------x---x---|

Intro/Verse 1&2
e|---------------------------------------------------------------------|
B|---------------------------------------------------------------------|
G|---------------------------------------------------------------------| (x4)
D|----------------0---------------0---------------0---------------0----|
A|----0---2---4-------0---2---4-------0---2---4-------4---2---0--------|
D|--0---0---0---0---0---0---0---0---0---0---0---0---0---0---0---0------|

Then play this on:
“I’ve tried all I know”- Verse 1
“How could you still love me”- Verse 2
e|---------------------------------------------------------------------|
B|---------------------------------------------------------------------|
G|---------------------------------------------------------------------|
D|----------------0---------------5---------------5---4---2---0---0----|
A|----0---2---4-------0---2---4-------0---2---4------------------------|
D|--0---0---0---0---0---0---0---0---0---0---0---0---0---0---0---0------|

e|---------------------------------------------------------------------|
B|---------------------------------------------------------------------|
G|------------------------------------------------7~~~~~---------------|
D|----------------0---------------0---------------7~~~~~---------------|
A|----0---2---4-------0---2---4-------0---2---4---5~~~~~---------------|
D|--0---0---0---0---0---0---0---0---0---0---0---0----------------------|

Chorus

D
I don't wanna waste another day
A
Living in regret from my mistakes
C                                G
I'll move on and the sun will shine
D
Pick up the pieces walk away
A
Live with the choices I have made
C                            G
You've forgotten and so will I

So will I

Solo- play the chorus

Outro
e|---------------------------------------------------------------------|
B|---------------------------------------------------------------------|
G|------------------------------------------------7~~~~~---------------|
D|----------------0---------------5---------------7~~~~~---------------|
A|----0---2---4-------0---2---4-------0---2---4---5~~~~~---------------|
D|--0---0---0---0---0---0---0---0---0---0---0---0----------------------|

************************************

| /   slide up
| \   slide down
| h   hammer-on
| p   pull-off
| ~   let ring
| x   Mute note
| ^   Bend

************************************
            
Submit corrections


        Moving On lessons Hard to play? Try these video lessons and learn fast Moving On lessons
        
↑ Back to top | Tablatures and chords for acoustic guitar and electric guitar, ukulele, drums are parodies/interpretations of the original songs. You may use it for private study, scholarship, research or language learning purposes only