» » »

Decyfer Down - Fading Tabs

Artists:  A B C D E F G H I J K L M N O P Q R S T U V W X Y Z # 

Fading Tabs

(ver. 1) Click to play this song!
Decyfer Down
 Rating:
4/5 (14 votes)

 Fading lessons Tabs too difficult? Try these video lessons and learn fast
 
                ----------------------------------------------------------------------------
-------------------------------------------------------------------------------

Tuning: Drop C    (CGCFAD)

Intro:

Gtr. 1 ( Acoustic Guitar )     Gtr. 2  Same In Verse             Gtr.3
D|------------------------------0----0--0--0--0--0--0--0---------------------
A|-----------------------------9-9/10-12-10-10-13-12-10----------------------
F|-44444444422224444---------------------------------------------------------
C|-22222222222222222---------------------------------------------------------
G|-22222333300002222---------------------------------------------3...0...----
C|--------------------------------------------------------- 2....------------

( Mute Any Number Of Strings) The low E and A need to be muted! Repeat 2x
D|---------------------------------------------------------------------------
A|---------------------------------------------------------------------------
F|---------------------------------------------------------------------------
C|---------------------------------------------------------------------------
G|-----33-----35XXXX------33--55---------------------------------------------
C|-2-22--22332--XXXX--2-22--22--23~-326~-------------------------------------

Verse: 1  ( Let Ring )      Guitars Come In w/wah effect 2x Sraping Tech.
D|--------------------------------------------------------------------------|
A|--------------------------------------------------------------------------|
F|--------------------------------------------------------------------------|
C|-2----2----2----2---------------------------------------------------------|
G|-2----2----2----2---------------------------------------------------------|
C|-2----2----2----2---------2-0h22h32h02h30h22h333-2-0h22h32h00-0-----------|

Pre-Chorus:
   C6add9         Dadd4
D|----5----------- 3-2------------------------------------------------------|
A|---3-3------------- 3-----------------------------------------------------|
F|--0---0--------0----------------------------------------------------------|
C|--------------4-----------------------------------------------------------|
G|-3------------------------------------------------------------------------|
C|------------0-------------------------------------------------------------|

Chorus: Gtr. 1 ( Free Strum )     Gtr. 2 ( Add fill as necessary )
   Em    G     C     D                Em7    G   Cadd9     Dadd4
D|-------------------------------------3-----3-----3---------3--------------|
A|-------------3-----------------------3-----3-----3---------3--------------|
F|-------------0-----------------------0-----0-----0--------0---------------|
C|-2-----0-----------0-----------------2-----0-----x-------4----------------|
G|-2-----0-----3-----0-----------------------------3------------------------|
C|-2-----5-----------0-----------------------------------0------------------|


Verse 2 Is A Muted Varient Of The Intro's Riff ( I Couldn't Figure It Out! So Take A Stab @ it.)

Bridge:
D|--------------------------------------------------------------------------|
A|--------------------------------------------------------------------------|
F|--------------------------------------------------------------------------|
C|------------------------------0-----------------------------0-0-0---------|
G|-22-22-22-22-22-22-22-22-2-----3h2--22-22-22-22-22-22-22-22-0-0-0---------|
C|-22-22-22-22-22-22-22-22-23XX-----3-22-22-22-22-22-22-22-22-0-0-0---------|

D|--------------------------------------------------------------------------|
A|--------------------------------------------------------------------------|
F|--------------------------------------------------------------------------|
C|---------------------------------------------------------------0----------|
G|-22-22-22-22-22-22-22-22-2-----5h3p2p0-22-22-22-22-22-22-22-22-0----------|
C|-22-22-22-22-22-22-22-22-2h3p2-----3---22-22-22-22-22-22-22-22-0----------|

Pre-Chorus 2
    C6add9         Dadd4       Em7              G              Cadd9
D|-----5---------------2----------------------------------------------------|
A|----3--3--------3-----3-------3-------------3-----------------3-----------|
F|---0----0------0-------------0-------------0--4/5\4p0--------0------------|
C|--------------4---4---------0-------------0-----------------0----0--------|
G|-3---------------------------------------------------------3--------------|
C|------------0-------------2------4------5---------------------------------|

       Dadd4         Em7
D|--------32----------------------------------------------------------------|
A|-----3----3----------3------------3---------------------------------------|
F|----0------0--------0------------0--4/5\4p0-------------------------------|
C|---4---------------0------------0-----------------------------------------|
G|--------------------------------------------------------------------------|
C|-0---------------2------4-----5-------------------------------------------|

| /  slide up
| \  slide down
| h  hammer-on
| p  pull-off
| ~  vibrato
| x  Mute note
============================================================================
            
Submit corrections


        Fading lessons Hard to play? Try these video lessons and learn fast Fading lessons
        
↑ Back to top | Tablatures and chords for acoustic guitar and electric guitar, ukulele, drums are parodies/interpretations of the original songs. You may use it for private study, scholarship, research or language learning purposes only