Home » D » Decyfer Down »

Decyfer Down - Crash Bass

Artists:  A B C D E F G H I J K L M N O P Q R S T U V W X Y Z # 

Crash Bass

(ver. 1) Click to play this song!
Decyfer Down
Noticed yet again, no bass tab.  I intend to do more Decyfer Down bass tabs so if 
you like, keep an eye in my submissions.

Guitar Intro
                                                                  x2
G| |----------------------------|--------------------------------| |
D|o|----------------------------|--------------------------------|o|
A| |----------------------------|--------------------------------| |
E|o|----------------------------|--------------------------------|o|
B| |-1-1-1/11-1--1-8h9-9p8-6h8--|--1-1-1/1-1--9-9-9-9-9-8-8-8-8-| |

short rest

|-------------------------|-------------------------|
|-------------------------|-------------------------|
|-------------------------|-------------------------|
|-------------------------|-------------------------|
|-1-1-1/11-1-1---1-1------|-1-1-1/11-1-1---1-1------|

|-------------------------|-------------------------|------|
|-------------------------|-------------------------|------|
|-------------------------|-------------------------|------|
|-------------------------|-------------------------|------|
|-1-1-1/11-1-1---1-1------|-1-1-1/11-1-1---1-1------|-8~~~~|

| |---------------------------------|---------------------------------|
|o|---------------------------------|---------------------------------|
| |---------------------------------|---------------------------------|
|o|---------------------------------|---------------------------------|
| |-8-8-8-8-8-8-8-8-8-8-8-8-8-8-8-8-|-6-6-6-6-6-6-6-6-6-6-6-6-6-6-6-6-|

                                                                     x2
|---------------------------------|---------------------------------| |
|---------------------------------|---------------------------------|o|
|---------------------------------|---------------------------------| |
|---------------------------------|---------------------------------|o|
|-4-4-4-4-4-4-4-4-4-4-4-4-4-4-4-4-|-3-3-3-3-3-3-3-3-3-3-3-3-3-3-3-3-| |

| |----------------------------|--------------------------------| |
|o|----------------------------|--------------------------------|o|
| |----------------------------|--------------------------------| |
|o|----------------------------|--------------------------------|o|
| |-1-1-1/11-1--1-8h9-9p8-6h8--|--1-1-1/11-1--9-9-9-9-9-8-8-8-8-| |

Short Pause

|-------------------------|-------------------------|
|-------------------------|-------------------------|
|-------------------------|-------------------------|
|-------------------------|-------------------------|
|-1-1-1/11-1-1---1-1------|-1-1-1/11-1-1---1-1------|

|-------------------------|-------------------------|------|
|-------------------------|-------------------------|------|
|-------------------------|-------------------------|------|
|-------------------------|-------------------------|------|
|-1-1-1/11-1-1---1-1------|-1-1-1/11-1-1---1-1------|-8~~~~|

| |---------------------------------|---------------------------------|
|o|---------------------------------|---------------------------------|
| |---------------------------------|---------------------------------|
|o|---------------------------------|---------------------------------|
| |-8-8-8-8-8-8-8-8-8-8-8-8-8-8-8-8-|-6-6-6-6-6-6-6-6-6-6-6-6-6-6-6-6-|

                                                                     x3
|---------------------------------|---------------------------------| |
|---------------------------------|---------------------------------|o|
|---------------------------------|---------------------------------| |
|---------------------------------|---------------------------------|o|
|-4-4-4-4-4-4-4-4-4-4-4-4-4-4-4-4-|-3-3-3-3-3-3-3-3-3-3-3-3-3-3-3-3-| |

|---------|---------|---------|---------|
|---------|---------|---------|---------|
|---------|---------|---------|---------|
|---------|---------|---------|---------|
|-1-2-----|-7-0-----|-1-2-----|-7-0-----|

                                                       x3
| |-----------|----------|-----------|----------|-----| |
|o|-----------|----------|-----------|----------|-----|o|
| |-----------|----------|-----------|----------|-----| |
|o|-----------|----------|-----------|----------|-----|o|
| |-0h1p01~h2-|0h1p0h7~0-|-0h1p01~h2-|0h1p0h7~0-|-1-0-| |

short pause

| |---------------------------------|---------------------------------|
|o|---------------------------------|---------------------------------|
| |---------------------------------|---------------------------------|
|o|---------------------------------|---------------------------------|
| |-8-8-8-8-8-8-8-8-8-8-8-8-8-8-8-8-|-6-6-6-6-6-6-6-6-6-6-6-6-6-6-6-6-|

                                                                     x4
|---------------------------------|---------------------------------| |
|---------------------------------|---------------------------------|o|
|---------------------------------|---------------------------------| |
|---------------------------------|---------------------------------|o|
|-4-4-4-4-4-4-4-4-4-4-4-4-4-4-4-4-|-3-3-3-3-3-3-3-3-3-3-3-3-3-3-3-3-| |

                                                                 x3
| |----------------------------|--------------------------------| |
|o|----------------------------|--------------------------------|o|
| |----------------------------|--------------------------------| |
|o|----------------------------|--------------------------------|o|
| |-1-1-1/11-1--1-8h9-9p8-6h8--|--1-1-1/11-1--9-9-9-9-9-8-8-8-8-| |

End

Thanks for reading, please Rate and comment.  MORE TO COME!
            
Submit corrections

↑ Back to top | Tablatures and chords for acoustic guitar and electric guitar, ukulele, drums are parodies/interpretations of the original songs. You may use it for private study, scholarship, research or language learning purposes only