» » »

Decyfer Down - Break Free Tabs

Artists:  A B C D E F G H I J K L M N O P Q R S T U V W X Y Z # 

Break Free Tabs

(ver. 1) Click to play this song!
Decyfer Down
 Rating:
4/5 (7 votes)

 Break Free lessons Tabs too difficult? Try these video lessons and learn fast
 
                Band: Decyfer Down


This is the video of my tab: 



					(INTRO)


 C|---------------------------------------------------------------------|
Ab|---------------------------------------------------------------------|
Eb|---------------------------------------------------------------------|
Bd|---------------------------------------------------------------------|
 F|---------------------------------------------------------------------|
Bd|--0-6-x-5--3-0-x-3--0-6-x-5--3-0-3--0-6-x-5--3-0-x-3--0-6-x-5--3-0---|


 C|----------------------------------8-----------------------------------|
Ab|----------------------------------9-----------------------------------|
Eb|----------------------------------------------------------------------|
Bd|--0-6-x-5--3-0-x-3--0-6-x-5--3-0-----0-6-x-5--3-0-x-3--0-6-x-5--3-0---|
 F|--0-6-x-5--3-0-x-3--0-6-x-5--3-0-----0-6-x-5--3-0-x-3--0-6-x-5--3-0---|
Bd|--0-6-x-5--3-0-x-3--0-6-x-5--3-0-----0-6-x-5--3-0-x-3--0-6-x-5--3-0---|




					(VERSE)


 C|-----------------------------------------|
Ab|-----------------------------------------|
Eb|-----------------------------------------|
Bd|--0-0-0--8-8-8--0-0-0--10--8-------------|
 F|--0-0-0--8-8-8--0-0-0--10--8-------------|
Bd|--0-0-0--8-8-8--0-0-0--10--8--7-8-7-8----|



 C|--------------------------------------------|
Ab|--------------------------------------------|
Eb|--------------------------------------------|
Bd|--0-0-0--8-8-8--0-0-0--10-10-8-8-7----------|
 F|--0-0-0--8-8-8--0-0-0--10-10-8-8-7----------|
Bd|--0-0-0--8-8-8--0-0-0--10-10-8-8-7----------|



 C|-----------------|
Ab|-----------------|
Eb|-----------------|
Bd|--0--0--0-0-0-0--|
 F|--0--0--0-0-0-0--|
Bd|--0--0--0-0-0-0--|

					(CHORUS)



 C|--------------------------------|
Ab|--------------------------------|
Eb|--------------------------------|
Bd|--0--3--5--8---0--3--5--10--5---|
 F|--0--3--5--8---0--3--5--10--5---|
Bd|--0--3--5--8---0--3--5--10--5---|


 C|----------------------------------|
Ab|----------------------------------|
Eb|----------------------------------|
Bd|--0--3--5--8---0--10--12--8--5-5--|
 F|--0--3--5--8---0--10--12--8--5-5--|
Bd|--0--3--5--8---0--10--12--8--5-5--|




					(VERSE-2)



 C|-----------------------------------------|
Ab|-----------------------------------------|
Eb|-----------------------------------------|
Bd|--0-0-0--8-8-8--0-0-0--10--8-------------|
 F|--0-0-0--8-8-8--0-0-0--10--8-------------|
Bd|--0-0-0--8-8-8--0-0-0--10--8--7-8-7-8----|



 C|--------------------------------------------|
Ab|--------------------------------------------|
Eb|--------------------------------------------|
Bd|--0-0-0--8-8-8--0-0-0--10-10-8-8-7----------|
 F|--0-0-0--8-8-8--0-0-0--10-10-8-8-7----------|
Bd|--0-0-0--8-8-8--0-0-0--10-10-8-8-7----------|



 C|-------------------------------------------------|
Ab|-------------------------------------------------|
Eb|-------------------------------------------------|
Bd|--0--0--0-0-0-0--------------------0--0--0-0-0-0-|
 F|--0--0--0-0-0-0--------------------0--0--0-0-0-0-|
Bd|--0--0--0-0-0-0-9-12-9-12-13-12-13-0--0--0-0-0-0-|


(chorus)


					(BRIDGE)

 C|-----------------------------------------------------------------|
Ab|-----------------------------------------------------------------|
Eb|-----------------------------------------------------------------|
Bd|-----------------------------------------------------------------|
 F|-----------------------------------------------------------------|
Bd|--0-6-x-5--3-0-x-3--0-6-x-5--3-0-x-3--0-6-x-5--3-0-x-3--0-6-x-5--|

...(Break Free)...



 C|--------------------------------------|
Ab|--------------------------------------|
Eb|--------------------------------------|
Bd|--0--10h12--0--12h13--0--10h12--3--1--|
 F|--0--10h12--0--12h13--0--10h12--3--1--|
Bd|--0--10h12--0--12h13--0--10h12--3--1--|



 C|-----------------------------------------|
Ab|-----------------------------------------|
Eb|-----------------------------------------|
Bd|--0--0--0-0-0-0-0--------0--0-0-0-0------|
 F|--0--0--0-0-0-0-0-3~~~~--0--0-0-0-0--3b--|
Bd|--0--0--0-0-0-0-0--------0--0-0-0-0------|


(chorus)


					(end)

 C|-----------------------------------------------------------------|
Ab|-----------------------------------------------------------------|
Eb|-----------------------------------------------------------------|
Bd|--0--0--0-0-0-0--------------------0--0--0-0-0-0--0-3-0-3-0-3-0--|  X2
 F|--0--0--0-0-0-0--------------------0--0--0-0-0-0--0-3-0-3-0-3-0--|
Bd|--0--0--0-0-0-0-9-12-9-12-13-12-13-0--0--0-0-0-0--0-3-0-3-0-3-0--|
            
Submit corrections


        Break Free lessons Hard to play? Try these video lessons and learn fast Break Free lessons
        
↑ Back to top | Tablatures and chords for acoustic guitar and electric guitar, ukulele, drums are parodies/interpretations of the original songs. You may use it for private study, scholarship, research or language learning purposes only