» » »

Death Grips - Spikes Tabs

Artists:  A B C D E F G H I J K L M N O P Q R S T U V W X Y Z # 

Spikes Tabs

(ver. 1) Click to play this song!
Death Grips
 Rating:
4.3/5 (6 votes)

 Spikes  lessons Tabs too difficult? Try these video lessons and learn fast
 
                [VERSE THING]

D#|----------------|---------------|-----------------|---------------|
A#|----------------|---------------|-----------------|---------------|
F#|-------------ALL THESE NOTES ARE HARMONICS--------|---------------|
C#|----------------|---------------|-----------------|---------------|
G#|----------------|---------------|-----------------|---------------|
D#|----------------|---------------|---5-------------|---------------|
A#|5-555-5-5-5-5-55|5-5-5-5-5-5-5-5|-5---5-5-5-5-5-55|5-5-5-5-5-5-5-5|
F |----------------|---------------|-----------------|---------------|
PM   --  - - -   --|  - - - - - - -|       - - -   --|  - - - - - -  | <--PALM MUTING


[MAIN RIFF]

D#|-------------------|------------|
A#|-------------------|------------|
F#|-------------------|------------|
C#|12-12-12-12-9--9-9-|15--15--12--|
G#|-------------------|------------|
D#|10-10-10-10-7--7-7-|13--13--10--|
A#|-------------------|------------|
F |-------------------|------------|
 

[PRE CHORUS]

D#|-----------|---------------|----------------|--------------|
A#|-----------|---------------|----------------|--------------|
F#|---SLIDE---|---------------|----------------|--------------|
C#|-----------|---------------|9-9-9-9-6-6-6-6-|12-12-12-12-9-|
G#|-----------|---------------|----------------|--------------|
D#|11---x-x-x-|x--x-x-x-x-x-x-|7-7-7-7-4-4-4-4-|10-10-10-10-7-|
A#|9----x-x-x-|x--x-x-x-x-x-x-|----------------|--------------|
F |-----------|---------------|----------------|--------------|


[CHORUS PT 1]

D#|---------------|-----------|----------------|-------------|
A#|---------------|-----------|----------------|-------------|
F#|---------------|-----------|----------------|-------------|
C#|---------------|-----------|6-6-6-6-4-4-----|-------------|
G#|---------------|-----------|------------6-6-|4-4-4-4------|
D#|4-4-4-4-4--4-4-|4--4--4----|----------------|--------5~~~~|
A#|4-4-4-4-4--4-4-|-----------|----------------|-------------|
F |2-2-2-2-2--2-2-|---------2/|----------------|-------------|


[CHORUS PT 2]

D#|---------------|-----------|---------------|---------------|
A#|---------------|-----------|---------------|---------------|
F#|---------------|-----------|---------------|---------------|
C#|---------------|-----------|---------------|---------------|
G#|---------------|-----------|---------------|---------------|
D#|4-4-4-4-4--4-4-|4--4--4----|4-4-4-4--------|7--7-----------|
A#|4-4-4-4-4--4-4-|-----------|--------4--4-4/|------/4-------|
F |2-2-2-2-2--2-2-|---------2/|---------------|---------------|            
Submit corrections


        Spikes  lessons Hard to play? Try these video lessons and learn fast Spikes  lessons
        
↑ Back to top | Tablatures and chords for acoustic guitar and electric guitar, ukulele, drums are parodies/interpretations of the original songs. You may use it for private study, scholarship, research or language learning purposes only