» » »

Death Grips - Black Quarterback Chords

Artists:  A B C D E F G H I J K L M N O P Q R S T U V W X Y Z # 

Black Quarterback Chords

(ver. 1) Click to play this song!
Death Grips
 Rating:
4.3/5 (19 votes)

 Black Quarterback lessons Tabs too difficult? Try these video lessons and learn fast
 
                
E|-------------------------------------------|
B|-8---8-8---8-87----8---8-8---8-8---8-87----|
G|-7---7-7---7-76----7---7-7---7-7---7-76----|
D|-------------------------------------------|
A|-------------------------------------------|
D|-------------------------------------------|

swine must be all the way...

E|---------------------------------|-------------------------------|
B|--7---7-7-7---7---7-7-7---7-7-7--|7-7-7---7-7-7---7--------------|
G|--6---6-6-6---6---6-6-6---6-6-6--|6-6-6---6-6-6---6--------------|
D|--8---6p4-4---4---4-4-4---4-4-4--|4-4-4---4-4-4---4--------------|
A|---------------------------------|--------------------4\\\1---0//|
D|---------------------------------|--------------------4\\\1---0//|
                                                       . . .   . .
                                                       ok so in this part you're sliding
                                                       while strumming so i put dots where
                                                       the rhythm is

E|-------------------------------|--------------------------------|
B|-------------------------------|--------------------------------|
G|---------------------------/8--|8\------------------------------|
D|---------------------------/8--|8\--2-2-2-------3---3-------3---|
A|////////5---5---5---5\-/12-----|----2-2-2-------3---3-------3---|
D|////////5---5---5---5\-/12-----|--------------------------------|
.   . . .

 bjork's vocals
 *thats a 15 bending a halfstep up to a B
E|---------------------14-------------|14------14--141414-------------|
B|---------------------17-------------|17------17--171717-------------|
G|(15)b16-----b15------x---15---------|x-------x---x-x-x--------------|
D|---------------------16-------------|16------16--161616-------------|
A|------------------------------------|-------------------------------|
D|------------------------------------|-------------------------------|

E|----------------14-------------|----------------14-------------|
B|----------------17-------------|----------------17-------------|
G|----------------x---15----(15)b|16-----b15------x---15---------|
D|----------------16-------------|----------------16-------------|
A|-------------------------------|-------------------------------|
D|-------------------------------|-------------------------------|

and then this bridge
E|14-------------14-------------14-------------14------14------|
B|17-------------17-------------17-------------17------17------|
G|x---15---------x---15---------x---15---------x---15--x---15--|
D|16-------------16-------------16-------------16------16------|
A|-------------------------------------------------------------|
D|-------------------------------------------------------------|

another verse
E|-----------------------------------------------------------------|
B|-7---7---7---7---7---7---7---7---7---7---7---7---7---7---7---7---|
G|-6---6---6---6---6---6---6---6---6---6---6---6---6---6---6---6---|
D|-------------------------------------6---9---9---9---------------|
A|-----------------------------------------------------------------|
D|-----------------------------------------------------------------|

E|-------------------------------------------------14------14------|
B|-------------------------------------------------17------17------|
G|-------------------------------------------------x---15--x---15--|
D|-------------------------------------------------16------16------|
A|-----------------------------------------------------------------|
D|-----------------------------------------------------------------|

ending
E|-----------------------------------------------------------------|
B|-----------------------------------------------------------------|
G|(15)b16-----b15------18-----16----15-----------------------------|
D|-----------------------------------------------------------------|
A|-----------------------------------------------------------------|
D|-----------------------------------------------------------------|
            
Submit corrections


        Black Quarterback lessons Hard to play? Try these video lessons and learn fast Black Quarterback lessons
        
↑ Back to top | Tablatures and chords for acoustic guitar and electric guitar, ukulele, drums are parodies/interpretations of the original songs. You may use it for private study, scholarship, research or language learning purposes only