» » »

Death - Perennial Quest Tabs

Artists:  A B C D E F G H I J K L M N O P Q R S T U V W X Y Z # 

Perennial Quest Tabs

(ver. 1) Click to play this song!
Death
 Rating:
4/5 (4 votes)

 Perennial Quest lessons Tabs too difficult? Try these video lessons and learn fast
 
                PERENNIAL QUEST  (DEATH-SYMBOLIC)



tune down one whole step 
p.m.   .......


intro
                    
||------------------------------------------------------|| 
||------------------------------------------------------||
||------------------------------------------------------||
||-9-----------9-----------10-----------7---------------||    3 X
||---7-0-0-0-0---7------------8-0-0-0-0---5-3-3-3-3-----||
||-----------------0-0-0-0------------------------------||
       . . . .     . . . .      . . . .     . . . .          



||------------------------------------------|| 
||------------------------------------------||
||------------------------------------------||
||-9-----------9-----------10-----------7---||
||---7-0-0-0-0---7------------8-0-0-0-0---5-||
||-----------------0-0-0-0------------------||
       . . . .     . . . .      . . . .

riff: 1

||--------------------------------------------------------| 
||--------------------------------------------------------|
||--------------------------------------------------h--p--|
||---------------7--------10---------------9|-10-9-10-9---|
||-----------------10-9-8----------------7--------------10|
||-0000000000000------------0000000000000-----------------|
   .............            .............


|------------------------------------------|| 
|------------------------------------------||
|--------------------------------5---------||
|-------------7--------------5------------7||    2 X
|---------------10-9-8-6---3---3------7----||
|0000000000000----------------------5---5--||
   .............

riff: 2    

||---------------------------------------------|| 
||---------------------------------------------||
||--------------10-----------------------------||
||-8---7---8---------10---8---7---8------------||  4 X
||-----------------8------------------8--------||
||---6---5---6----------8---6---5---6---6--8--8||
                                             

riff: 3    repeat 4X

||-----------------------------|| 
||-----------------------------||
||-----------------------------||
||---------------8-----------10||
||---2-----6--6--6-----8--8--8-||
||0--0--4--4--------6--6-------||
  .     .     .     .     .     

riff: 4

||---------------------------------------------------------|| 
||---------------------------------------------------------||
||---------------------------------------------------------|| 2 X
||---------------------------------------------------------||
||----------h-----------2-1--2-----------h----------2-1--3-||
||-000000003-4 000000003----3-2-000000003-4000000003----3-2||
   ........    .......... . ... ........   .......... . ...

riff: 5

||--------------------------------------------|| 
||--------------------------------------------||
||-------------4-----------------4------------||  6 X
||---------------3---3-------------3---4-2----||
||-----------------2-----------------2-----3--||
||-1-1-1-1-1-1--------1-1-1-1-1-1-------------||
   . . . . . .     .  . . . . . .    .

riff: 6 

||-------------------------------------------------------------------| 
||-------------------------------------------------------------------|
||-------------------------------------------------------------------|
||-9--10-9----------------9--10-9---------------9--10-9--------------|
||-7--8--7----------------7--8--7---------------7--8--7------------10|
||---------0-0-0-0-0-0-7----------0-0-0-0-0-0-8---------0-0-0-0-0-0--|
           . . . . . .            . . . . . .           . . . . . . 


|-----------------------|| 
|-----------------------||
|-----------------------||
|-----------------------|| 2 X
|-2--3--2-------------2-||
|-0--1--0-0-0-0-0-0-0-0-||
          . . . . . . 

riff: 7

||-----------------------------------------|| 
||-----------------------------------------||
||---------8----9--------------------------||   2 X
||-555555556----7--------------------4-----||
||-------------------2--5--7----2----2-----||
||-------------------0--3--5----0----------||
                     .

riff: 8
under solo

||-------------------------------------------------------| 
||-------------------------------------------------------|
||-------------------------------------------------------|
||-------------------------------------------------------|
||-6--------------------------6--------------------------|
||-4--4-4-6/7-7-4-4-6/7-7\6-6-4--4-4-6/7-7-4-4-6/7-7\6-6-|
      . .       . .              . .       . .


|--------------------------------------------------------|| 
|--------------------------------------------------------||
|--------------------------------------------------------||
|--------------------------------------------------------|| 2 X
|--------------------------------------------------------||
|-0-0-0-0-6/7-7-0-0-6/7-7\6-6-0-0-0-0-6/7-7-0-0-6/7-7\6-6||
  . . . .       . .           . . . .       . . 

riff: 9

||----------------------------|| 
||----------------------------||
||---------10-----------12----|| 8 X
||-----9--9--9-------9----12--|| 
||-----7-------------7--------||
||-0-0-----------0-0----------||
  

riff: 10                              clean g.
||-----------------------------------|-6-----5-----6-----5-----| 
||-----------------------------------|---3-----3-----3-----3---|
||-----------------------------------|-----0-----0-----0-----0-|
||-----------------------------------|-------------------------| 
||--3---------------6---------5------|-------------------------|
||------------------4---------3------|-------------------------|

 |-----6----6----5----5----||
 |---4----4----4----4------|| 
 |-3----3----3----3--------|| 12 X under solo
 |-------------------------||
 |-------------------------||
 |-------------------------||

solo: 

|---------h--------------------------------------------h--------------| 
|-----10--11--10------------10\4------6------------10--11--10---------|
|---------------------------------------------------------------------|
|---------------------------------------------------------------------|    
|---------------------------------------------------------------------|
|---------------------------------------------------------------------|

                                                  guitar 2
|-----------------------------------h----------------h--10------------| 
|--------10\4------6------------10--11--10-------10--11---------------|
|---------------------------------------------------------------------|
                                                  guitar 1
|---------------------------------------------------------------------|    
|------------------------------------------------10-----------------11|
|---------------------------------------------------------------------|

g. 1+2
|------------------------------------------||
|-11/13-13-13/15-15/18-18--18/20-----------||
|------------------------------------------||   
|------------------------------------------||
|------------------------------------------||


song structure:

intro 
riff 1    ( 2 x )
riff 2    ( 4 x )
riff 3    ( 4 x )
riff 4    ( 2 x )
riff 5    ( 6 x )
riff 6    ( 2 x )
riff 7    ( 2 x )
riff 6    ( 2 x )
     ... WHERE DREAMS ARE FOLLOWED, AND TIME IS A TEST...
riff 8    ( 2 x )
riff 9    ( 8 x )
riff 1    ( 2 x )
riff 2    ( 4 x )
riff 3    ( 4 x )
riff 4    ( 2 x )
riff 5    ( 6 x )
riff 10 
----
            
Submit corrections


        Perennial Quest lessons Hard to play? Try these video lessons and learn fast Perennial Quest lessons
        
↑ Back to top | Tablatures and chords for acoustic guitar and electric guitar, ukulele, drums are parodies/interpretations of the original songs. You may use it for private study, scholarship, research or language learning purposes only