» » »

Death - Living Monstrosity Tabs

Artists:  A B C D E F G H I J K L M N O P Q R S T U V W X Y Z # 

Living Monstrosity Tabs

(ver. 3) Click to play this song!
Death
 Rating:
4/5 (4 votes)

 Living Monstrosity lessons Tabs too difficult? Try these video lessons and learn fast
 
                
LIVING MONSTROSITY
As recorded by Death
(From the 1990 Album SPIRITUAL HEALING)

        



Gtr I (D G C F A D) - 'Rhythm 1'
Gtr II (D G C F A D) - 'Rhythm 2'
Gtr III (D G C F A D) - 'Lead: James Murphy'
Gtr IV (D G C F A D) - 'Lead: Chuck Schuldiner'

   Intro
    Moderately Fast Metal Q=168
            A5         G#5          C5         B5
   4/4
    Gtrs I, II
    PM----|    PM----|      PM----|    PM----|
    S S S S Q  S S S S Q    S S S S Q  S S S S Q
||------------------------|------------------------||
||o-----------------------|-----------------------o||
||------------------------|------------------------||
||------------------------|---------5----------4---||
||o---------7----------6--|-3-3-3-3-3--2-2-2-2-2--o||
||--5-5-5-5-5--4-4-4-4-4--|------------------------||


    (A)             (G#)              (C)             (B)
    PM--------------------------------------------------------------|
    S S S S S S S S S S S S S S S S   S S S S S S S S S S S S S S S S
||----------------------------------|-----------------------------------||
||o---------------------------------|----------------------------------o||
||----------------------------------|-----------------------------------||
||----------------------------------|-----------------------------------||
||o---------------------------------|-3-3-3-3-3-3-3-3-2-2-2-2-2-2-2-2--o||
||--5-5-5-5-5-5-5-5-4-4-4-4-4-4-4-4-|-----------------------------------||


   Pre-Verse
    $
    (E)             (C)
    PM-------------------------------
    S S S S S S S S S S S S S S S S
||----------------------------------|
||o---------------------------------|
||----------------------------------|
||----------------------------------|
||o-----------------3-3-3-3-3-3-3-3-|
||--0-0-0-0-0-0-0-0-----------------|


  (B)             (G)               (G#)            (D)
 -----------------------------------------------------------------|
  S S S S S S S S S S S S S S S S   S S S S S S S S S S S S S S S S
|---------------------------------|---------------------------------|
|---------------------------------|---------------------------------|
|---------------------------------|---------------------------------|
|---------------------------------|---------------------------------|
|-2-2-2-2-2-2-2-2-----------------|-----------------5-5-5-5-5-5-5-5-|
|-----------------3-3-3-3-3-3-3-3-|-4-4-4-4-4-4-4-4-----------------|


  1.                                  2.ster Q=190
  (C#)            (A)                 (C#)    (A)     (Bb)    (F)
  PM----------------------------------------------------------------|
  S S S S S S S S S S S S S S S S     S S S S S S S S S S S S S S S S
|----------------------------------||---------------------------------|
|---------------------------------o||---------------------------------|
|----------------------------------||---------------------------------|
|----------------------------------||---------------------------------|
|-4-4-4-4-4-4-4-4-----------------o||-4-4-4-4-------------------------|
|-----------------5-5-5-5-5-5-5-5--||---------5-5-5-5-6-6-6-6-1-1-1-1-|


    (E)             (C)
    PM-------------------------------
    S S S S S S S S S S S S S S S S
||----------------------------------|
||o---------------------------------|
||----------------------------------|
||----------------------------------|
||o-----------------3-3-3-3-3-3-3-3-|
||--0-0-0-0-0-0-0-0-----------------|


  (B)             (G)               (G#)            (D)
 -----------------------------------------------------------------|
  S S S S S S S S S S S S S S S S   S S S S S S S S S S S S S S S S
|---------------------------------|---------------------------------|
|---------------------------------|---------------------------------|
|---------------------------------|---------------------------------|
|---------------------------------|---------------------------------|
|-2-2-2-2-2-2-2-2-----------------|-----------------5-5-5-5-5-5-5-5-|
|-----------------3-3-3-3-3-3-3-3-|-4-4-4-4-4-4-4-4-----------------|


  1.                                  2.
  (C#)            (A)                 (C#)    (A)     (Bb)    (F)
  PM----------------------------------------------------------------|
  S S S S S S S S S S S S S S S S     S S S S S S S S S S S S S S S S
|----------------------------------||---------------------------------|
|---------------------------------o||---------------------------------|
|----------------------------------||---------------------------------|
|----------------------------------||---------------------------------|
|-4-4-4-4-4-4-4-4-----------------o||-4-4-4-4-------------------------|
|-----------------5-5-5-5-5-5-5-5--||---------5-5-5-5-6-6-6-6-1-1-1-1-|


   1st & 2nd Verse
    (E)             (C)
    PM-------------------------------
    S S S S S S S S S S S S S S S S
||----------------------------------|
||o---------------------------------|
||----------------------------------|
||----------------------------------|
||o-----------------3-3-3-3-3-3-3-3-|
||--0-0-0-0-0-0-0-0-----------------|


  (B)             (G)               (G#)            (D)
 -----------------------------------------------------------------|
  S S S S S S S S S S S S S S S S   S S S S S S S S S S S S S S S S
|---------------------------------|---------------------------------|
|---------------------------------|---------------------------------|
|---------------------------------|---------------------------------|
|---------------------------------|---------------------------------|
|-2-2-2-2-2-2-2-2-----------------|-----------------5-5-5-5-5-5-5-5-|
|-----------------3-3-3-3-3-3-3-3-|-4-4-4-4-4-4-4-4-----------------|


  (C#)            (A)               (E)             (C)
  PM--------------------------------------------------------------|
  S S S S S S S S S S S S S S S S   S S S S S S S S S S S S S S S S
|---------------------------------|---------------------------------|
|---------------------------------|---------------------------------|
|---------------------------------|---------------------------------|
|---------------------------------|---------------------------------|
|-4-4-4-4-4-4-4-4-----------------|-----------------3-3-3-3-3-3-3-3-|
|-----------------5-5-5-5-5-5-5-5-|-0-0-0-0-0-0-0-0-----------------|


  (B)             (G)               (G#)            (D)
  PM-----------------------------------------------------------------
  S S S S S S S S S S S S S S S S   S S S S S S S S S S S S S S S S
|---------------------------------|---------------------------------|
|---------------------------------|---------------------------------|
|---------------------------------|---------------------------------|
|---------------------------------|---------------------------------|
|-2-2-2-2-2-2-2-2-----------------|-----------------5-5-5-5-5-5-5-5-|
|-----------------3-3-3-3-3-3-3-3-|-4-4-4-4-4-4-4-4-----------------|


  (C#)    (A)     (Bb)    (F)
 -------------------------------|
  S S S S S S S S S S S S S S S S
|----------------------------------||
|---------------------------------o||
|----------------------------------||
|----------------------------------||
|-4-4-4-4-------------------------o||
|---------5-5-5-5-6-6-6-6-1-1-1-1--||


   Pre-Chorus
    Slower  Q=102(8=s8)
    C#5C5 G#5A5   C5 B5 G5 G#5
    Q  Q  Q  Q    Q  Q  Q  Q   4x
||--------------|--------------||-|
||o-------------|-------------o||-|
||--------------|--------------||-|
||--6--5--------|-5--4---------||-|
||o-4--3--6--7--|-3--2--5--6--o||-|
||--------4--5--|-------3--4---||-|


    (G)         C#(G)                 C#(G)
    PM--------|   PM----------------|   PM----|
    |----3----| |---3---| |----3----| |---3---|
    S S S S S S E S S S S S S S S S S E S S S S
||------------------------------------------------|
||o-----------------------------------------------|
||------------------------------------------------|
||--------------6---------------------6-----------|
||o-------------4---------------------4-----------|
||--3-3-3-3-3-3---3-3-3-3-3-3-3-3-3-3---3-3-3-3---|


                                        Fine
              C#(G)                 C#D5C#5
                                             2/8
  PM--------|   PM----------------|
  |----3----| |---3---| |----3----| |-3-|
  S S S S S S E S S S S S S S S S S E E E  4x Q
|------------------------------------------||----|
|-----------------------------------------o||----|
|------------------------------------------||----|
|-------------6---------------------6-7-6--||----|
|-------------4---------------------4-5-4-o||----|
|-3-3-3-3-3-3---3-3-3-3-4-4-4-4-4-4--------||----|


   Chorus
    Q=190
            A5         G#5          C5         B5
   4/4
    PM----|    PM----|      PM----|    PM----|
    S S S S Q  S S S S Q    S S S S Q  S S S S Q
||------------------------|------------------------||
||o-----------------------|-----------------------o||
||------------------------|------------------------||
||------------------------|---------5----------4---||
||o---------7----------6--|-3-3-3-3-3--2-2-2-2-2--o||
||--5-5-5-5-5--4-4-4-4-4--|------------------------||


      (A)             (G#)
      PM----------------------------|
      S S S S S S S S S S S S S S S S
|-||------------------------------------|
|-||o-----------------------------------|
|-||------------------------------------|
|-||------------------------------------|
|-||o-----------------------------------|
|-||--5-5-5-5-5-5-5-5-4-4-4-4-4-4-4-4---|


  (C)             (B)
  S S S S S S S S S S S S S S S S  4x
|----------------------------------||-|
|---------------------------------o||-|
|----------------------------------||-|
|----------------------------------||-|
|-3-3-3-3-3-3-3-3-2-2-2-2-2-2-2-2-o||-|
|----------------------------------||-|


    C#          G           B          F#
     W           W          W           W
||------------|-----------|----------|--------||
||o-----------|-----------|----------|-------o||
||------------|-12--------|----------|-11-----||
||--11--------|-----------|-9--------|--------||
||o-----------|-10--------|----------|--9----o||
||---9--------|-----------|-7--------|--------||


   Interlude
    Q=90(8=s8)
    N.C.
    Gtr I
     |------3-------|  |------3-------|  |------3-------|  |------3-------|
     S  S  S  S  S  S  S  S  S  S  S  S  S  S  S  S  S  S  S  S  S  S  S  S
||--------------------------------------------------------------------------|
||o-------------------------------------------------------------------------|
||--------------------------------------------------------------------------|
||--------------------11----------------------------------11----------------|
||o-----------9-11-12----12-11--9-----------------9-11-12----12-11--9-------|
||---9-11-12----------------------12-11--9-11-12----------------------12-11-|
|
|   Gtr II
|    |------3-------|  |------3-------|  |------3-------|  |------3-------|
|    S  S  S  S  S  S  S  S  S  S  S  S  S  S  S  S  S  S  S  S  S  S  S  S
||--------------------------------------------------------------------------|
||o-------------------------------------------------------------------------|
||--------------------13----------------------------------13----------------|
||-----------11-13-14----14-13-11----------------11-13-14----14-13-11-------|
||o-11-13-14----------------------14-13-11-13-14----------------------14-13-|
||--------------------------------------------------------------------------|


   |------3-------|  |------3-------|  |------3-------|  |------3-------|
   S  S  S  S  S  S  S  S  S  S  S  S  S  S  S  S  S  S  S  S  S  S  S  S
|----------------------------------------------------------------------------|
|----------------------------------------------------------------------------|
|-------------------13----------------------------------13-------------------|
|----------11-13-14----14-13-11----------------11-13-14----14-13-11----------|
|-11-13-14----------------------14-13-11-13-14----------------------14-13----|
|----------------------------------------------------------------------------|
|
|  |------3-------|  |------3-------|  |------3-------|  |------3-------|
|  S  S  S  S  S  S  S  S  S  S  S  S  S  S  S  S  S  S  S  S  S  S  S  S
|----------------------------------------------------------------------------|
|-------------------16----------------------------------16-------------------|
|----------13-15-16----16-15-13----------------13-15-16----16-15-13----------|
|-13-15-16----------------------16-15-13-15-16----------------------16-15----|
|----------------------------------------------------------------------------|
|----------------------------------------------------------------------------|


  |------3------|  |------3------| |------3------|  |----3-----|
  S  S  S S  S  S  S  S  S S  S  S S  S  S S  S  S  S  S  S S  E
|----------------------------------------------------------------|
|----------------------------------------------------------------|
|----------------------------------------------------------------|
|------------------9--------------------------------9------------|
|---------7--9-10----10--9-7---------------7--9-10----10--9-7----|
|-7--9-10--------------------10--9-7--9-10--------------------10-|
|
| |------3------|  |------3------| |------3------|  |----3-----|
| S  S  S S  S  S  S  S  S S  S  S S  S  S S  S  S  S  S  S S  E
|----------------------------------------------------------------|
|----------------------------------------------------------------|
|-----------------11-------------------------------11------------|
|---------9-11-12----12-11-9---------------9-11-12----12-11-9----|
|-9-11-12--------------------12-11-9-11-12--------------------12-|
|----------------------------------------------------------------|


                                                         ~~
   |------3-------|  |------3-------|  |------3-------|
   S  S  S  S  S  S  S  S  S  S  S  S  S  S  S  S  S  S  Q
|-------------------------------------------------------------||
|------------------------------------------------------------o||
|-------------------11----------------------------------11----||
|-----------9-11-12----12-11--9-----------------9-11-12-------||
|--9-11-12----------------------12-11--9-11-12---------------o||
|-------------------------------------------------------------||
|
|                                                        ~~
|  |------3-------|  |------3-------|  |------3-------|
|  S  S  S  S  S  S  S  S  S  S  S  S  S  S  S  S  S  S  Q
|-------------------------------------------------------------||
|-------------------14----------------------------------14---o||
|----------11-13-14----14-13-11----------------11-13-14-------||
|-11-13-14----------------------14-13-11-13-14----------------||
|------------------------------------------------------------o||
|-------------------------------------------------------------||


  Faster Q=212
  F#5C#5  F#5  C5   G#5G5   F#5C#5  F#5  C5   G#5G5
  Gtrs I, II
  Q  H    Q    H    Q  Q    Q  H    Q    H    Q  Q
|------------|------------|------------|-------------||
|------------|------------|------------|-------------||
|------------|------------|------------|-------------||
|----6-------|-5----------|----6-------|-5-----------||
|-4--4----4--|-3----6--5--|-4--4----4--|-3----6--5---||
|-2-------2--|------4--3--|-2-------2--|------4--3---||


 Lead: Murphy
  F#5      C#5               F#5
  Gtr III
   |--3--|  |--3--|  |--3--|
   E  E  E  E  E  E  E  E  E  S  S  S  S
|----------------------------------------|
|----------------------------------------|
|----------------------------------------|
|----------------------------------------|
|----------14----------------14h15p14----|
|-14-15-17----17-15-14-15-17----------17-|
|
| Gtrs I, II
|  Q        H                 Q
|----------------------------------------|
|----------------------------------------|
|----------------------------------------|
|-----------6----------------------------|
|--4--------4-----------------4----------|
|--2--------------------------2----------|


  C5                G#5      G5            F#5      C#5               F#5
   |--3--|  |--3--|  |--3--|                |--3--|  |--3--|  |--3--|
   E  E  E  E  E  E  E  E  E  S  S  S  S    E  E  E  E  E  E  E  E  E  S  S  S  S
|----------------------------------------|----------------------------------------|
|----------------------------------------|----------------------------------------|
|----------------------------------------|----------------------------14h16p14----|
|----------------------------14h16p14----|-14----------------14-16-17----------17-|
|-14----------------14-15-17----------17-|----17-15-14-15-17----------------------|
|----17-15-14-15-17----------------------|----------------------------------------|
|
|  H                 Q        Q             Q        H                 Q
|----------------------------------------|----------------------------------------|
|----------------------------------------|----------------------------------------|
|----------------------------------------|----------------------------------------|
|--5-------------------------------------|-----------6----------------------------|
|--3-----------------6--------5----------|--4--------4-----------------4----------|
|--------------------4--------3----------|--2--------------------------2----------|


  C5                G#5 G5   N.C.
                     ~~~~~~~~~~~~~~~~~~
   |--3--|  |--3--|                             |--3--|  |--3--|
   E  E  E  E  E  E  H        Q   +S   S  S  S  E  E  E  E  E  E
|--------------------------|-14--(14)h15p14p12----12-------------|
|--------------------------|-------------------15----15-13-12-13-|
|-14-----------------------|-------------------------------------|
|----17-16-14--------------|-------------------------------------|
|-------------17-15-14-----|-------------------------------------|
|--------------------------|-------------------------------------|
|
|  H                 Q  Q     Q    Q            Q        Q
|--------------------------|-------------------------------------|
|--------------------------|-------------------------------------|
|--------------------------|-------------------------------------|
|--5-----------------------|-------------------------------------|
|--3-----------------6--5--|-------2-----------------------------|
|--------------------4--3--|--0-----------------0--------2-------|


   |--3--|  |--3--|
   E  E  E  E  E  E  S  S  S  S  S  S  S  S
|----12h14h15p14p12--------------------------|
|-15----------------15-13-12-15-13-12-15-13--|
|--------------------------------------------|
|--------------------------------------------|
|--------------------------------------------|
|--------------------------------------------|
|
|                    ~~
|  Q        Q        H
|--------------------------------------------|
|--------------------------------------------|
|--------------------------------------------|
|--------------------------------------------|
|-----------1--------------------------------|
|--3-----------------1-----------------------|


                                                              ~~~~~~
                     |---3----|  |--3--|    |--3--|  |--3--|
   S  S  E  E  S  S  S  S  E  E  E  E  E    E  E  E  E  E  E  H
|----------------------------------------|-------------------------|
|-12h13p12----12h13p12-13p12----12-------|-------------------------|
|----------14----------------14----14-12-|-14p12p11-12p11----11----|
|----------------------------------------|----------------14-------|
|----------------------------------------|-------------------------|
|----------------------------------------|-------------------------|
|
|                                                             ~~
|  Q        Q        Q           Q          Q        Q        H
|----------------------------------------|-------------------------|
|----------------------------------------|-------------------------|
|----------------------------------------|-------------------------|
|----------------------------------------|-------------------------|
|-----------2----------------------------|-----------1-------------|
|--0-----------------0-----------2-------|--3-----------------1----|


  F#5   C#5                     F#5
 ~~~~~~
   +Q    +S   S  S S  S S  S  S S  S  S S
|-----------------------------------------|
|-----------------------------------------|
|-(11)--(11)h12p11p9----9---------------9-|
|--------------------12---12-10-9-10-12---|
|-----------------------------------------|
|-----------------------------------------|
|
|   Q     H                     Q
|-----------------------------------------|
|-----------------------------------------|
|-----------------------------------------|
|---------6-------------------------------|
|---4-----4---------------------4---------|
|---2---------------------------2---------|


  C5                 G#5     G5
              |-3--|  |-3--|  |-3--|
   S  S  S S  E  E E  E  E E  E  E E
|------------------------------------|
|------------------------------------|
|-11h12p11p9----11-9-------9---------|
|------------12------12-10---12-10-9-|
|------------------------------------|
|------------------------------------|
|
|  H                  Q       Q
|------------------------------------|
|------------------------------------|
|------------------------------------|
|--5---------------------------------|
|--3------------------6-------5------|
|---------------------4-------3------|


  F#5     C#5             F#5         C5           G#5G5G5
                                               ~~~
   |-3--|  |-3--| |--3--| |---3---|   |--3--|          |--3--|
   E  E E  E E  E E  E  E S  S E  E   E  E  E  H       E  E  E
|-----------------------------------|---------------------------|
|-----------------------------------|---------------------------|
|-----------------------------------|---------------------------|
|-12-10-9-10-9----9-----------------|-----------------17-16-14--|
|--------------12---12-10-9h10p9----|-9-------------------------|
|--------------------------------12-|---12-10-[9]---------------|
|
|  Q       H              Q           H            Q   Q
|-----------------------------------|---------------------------|
|-----------------------------------|---------------------------|
|-----------------------------------|---------------------------|
|----------6------------------------|-5-------------------------|
|--4-------4--------------4---------|-3------------6---5--------|
|--2----------------------2---------|--------------4---3--------|


  F#5         C#5                     F#5
                                       |--3--|
   S  S  S  S  S  S  S  S  S  S  S  S  E  E  E
|----------------------------------------------|
|----------------------------------------------|
|-------------------14----14h16p14-16h17p16p14-|
|-16-14-16-17-16-17----17----------------------|
|----------------------------------------------|
|----------------------------------------------|
|
|  Q           H                       Q
|----------------------------------------------|
|----------------------------------------------|
|----------------------------------------------|
|--------------6-------------------------------|
|--4-----------4-----------------------4-------|
|--2-----------------------------------2-------|


  C5                G#5      G5         F#5         C#5                     F#5
   |--3--|  |--3--|  |--3--|  |--3--|                                        |--3--|
   E  E  E  E  E  E  E  E  E  E  E  E    S  S  S  S  S  S  S  S  S  S  S  S  E  E  E
|-------------------------------------|----------------------------15----15-17-15-17-|
|-------------------15-15-15-17-15-17-|-19-17-15-17-15-17-19-17-19----19-------------|
|-16-14-16-17-16-17-------------------|----------------------------------------------|
|-------------------------------------|----------------------------------------------|
|-------------------------------------|----------------------------------------------|
|-------------------------------------|----------------------------------------------|
|
|  H                 Q        Q          Q           H                       Q
|-------------------------------------|----------------------------------------------|
|-------------------------------------|----------------------------------------------|
|-------------------------------------|----------------------------------------------|
|--5----------------------------------|--------------6-------------------------------|
|--3-----------------6--------5-------|--4-----------4-----------------------4-------|
|--------------------4--------3-------|--2-----------------------------------2-------|


  C5            G#5G5   N.C.
            ~~~                  ~~
   |--3--|              |--3--|
   E  E  E  H.          E  E  E  Q   +S   S  S  S  E  E
|-19-17-15------------|------17-20--(20)-19-17-19-20-19-|
|----------19---------|---19----------------------------|
|---------------------|-x-------------------------------|
|---------------------|---------------------------------|
|---------------------|---------------------------------|
|---------------------|---------------------------------|
|
|  H            Q  Q    Q        Q    Q            Q
|---------------------|---------------------------------|
|---------------------|---------------------------------|
|---------------------|---------------------------------|
|--5------------------|---------------------------------|
|--3------------6--5--|----------2----------------------|
|---------------4--3--|-0-------------0------------2----|


   |---3----|  |--3--|
   S  S  E  E  E  E  E  S  S  S  S  S  S  S  S
|-17h19p17----17----------------17-19-20-19-17---|
|----------20----20-19-17-19-20------------------|
|------------------------------------------------|
|------------------------------------------------|
|------------------------------------------------|
|------------------------------------------------|
|
|                       ~~
|  Q           Q        H
|------------------------------------------------|
|------------------------------------------------|
|------------------------------------------------|
|------------------------------------------------|
|--------------1---------------------------------|
|--3--------------------1------------------------|


                                                  ~~~
   |--3--|  |--3--|  |--3--|  |--3--|    |--3--|
   E  E  E  E  E  E  E  E  E  E  E  E    E  E  E  H.
|-------------------------------------|--------------------||
|-20-19-17-20-19-17-20-19-17-19p17----|-17-----------------||
|----------------------------------19-|----19-17-19--------||
|-------------------------------------|--------------------||
|-------------------------------------|--------------------||
|-------------------------------------|--------------------||
|
|                                                     ~
|  Q        Q        Q        Q          Q        Q   H
|-------------------------------------|--------------------||
|-------------------------------------|--------------------||
|-------------------------------------|--------------------||
|-------------------------------------|--------------------||
|-----------2-------------------------|-----------1--------||
|--0-----------------0--------2-------|--3------------1----||


 Lead: Schuldiner
  F#5   C#5         F#5     C5          G#5   G5
  Gtr IV
                                               ~~
   E  E  E  E  E  E  E  E    E  E  E  E  E  E  Q
|-------------------------|-----------------------|
|----12-14----12-14----12-|----13-15----13-15-13--|
|-11-------11-------11----|-12-------12-----------|
|-------------------------|-----------------------|
|-------------------------|-----------------------|
|-------------------------|-----------------------|
|
| Gtrs I, II
|  Q     H           Q       H           Q     Q
|-------------------------|-----------------------|
|-------------------------|-----------------------|
|-------------------------|-----------------------|
|--------6----------------|--5--------------------|
|--4-----4-----------4----|--3-----------6-----5--|
|--2-----------------2----|--------------4-----3--|


  F#5   C#5         F#5     C5          G#5 G5
                                         ~~
   E  E  E  E  E  E  E  E    E  E  E  E  H
|-------------------------|---------------------|
|----12-14----12-14-12-11-|---------------------|
|-11-------11-------------|-12-11---------------|
|-------------------------|-------14-12-11------|
|-------------------------|---------------------|
|-------------------------|---------------------|
|
|  Q     H           Q       H           Q  Q
|-------------------------|---------------------|
|-------------------------|---------------------|
|-------------------------|---------------------|
|--------6----------------|--5------------------|
|--4-----4-----------4----|--3-----------6--5---|
|--2-----------------2----|--------------4--3---|


  F#5       C#5             F#5
  |---5---|           |-3-|  |---5---|
  S S S S S  S S S  S E E E  S S S S S
|--------------------------------------|
|--------------------------------------|
|--------------------------------------|
|---------------------8-9-8--------8-9-|
|-9-9-9-9-9-10-7-9-10-------10-9-7-----|
|--------------------------------------|
|
| Q          H               Q
|--------------------------------------|
|--------------------------------------|
|--------------------------------------|
|------------6-------------------------|
|-4----------4---------------4---------|
|-2--------------------------2---------|


  C5                    G#5             G5
  |---5----|             |-----6------| |--3--|
  S S  S S S  S  S  S S  S  S S  S S  S S  S  S  S  S
|-----------------------------------------------------|
|-----------------------------------------------11-12-|
|-----------------------12-11-9---------9-11-12-------|
|-8-9-11-9-8-11-12-11-9---------12-9-11---------------|
|-----------------------------------------------------|
|-----------------------------------------------------|
|
| H                      Q              Q
|-----------------------------------------------------|
|-----------------------------------------------------|
|-----------------------------------------------------|
|-5---------------------------------------------------|
|-3----------------------6--------------5-------------|
|------------------------4--------------3-------------|


  F#5            C#5                  F#5
   |-----5-----|                       |-3--|
   S  S  S  S  S  S  S  S  S  S  S  E  E  E E
|---------------------------------------------|
|-11-11-11-12-12-14-12-11-11-12-12-11---------|
|-------------------------------------12-11-9-|
|---------------------------------------------|
|---------------------------------------------|
|---------------------------------------------|
|
|  Q              H                    Q
|---------------------------------------------|
|---------------------------------------------|
|---------------------------------------------|
|-----------------6---------------------------|
|--4--------------4--------------------4------|
|--2-----------------------------------2------|


  C5                       G#5G5   N.C.
                           ~
        |-3--|  |---5----|
   S S  S  S S  S S S  S S H        H          +E   +E    E  E
|--------------------------------|-12---------(12)-(12)--12-14---|
|--------------------------------|-15b17======(15)-(15)r---------|
|-11p9---------------------------|-------------------------------|
|------12p11p9-11p9p8------------|-------------------------------|
|---------------------10p7-9-----|-------------------------------|
|--------------------------------|-------------------------------|
|
|  H                       Q  Q     Q      Q    Q         Q
|--------------------------------|-------------------------------|
|--------------------------------|-------------------------------|
|--------------------------------|-------------------------------|
|--5-----------------------------|-------------------------------|
|--3-----------------------6--5--|---------2---------------------|
|--------------------------4--3--|--0-----------0---------2------|


                        ~~~~~~~~~~~~
   |--3--|
   E  E  E  S  S  S  S  Q       +E   +E
|-15p14p12-14p12----12-15b17===(15)-(15)r-|
|----------------15-----------------------|
|-----------------------------------------|
|-----------------------------------------|
|-----------------------------------------|
|-----------------------------------------|
|
|                       ~~~~~~
|  Q        Q           H
|-----------------------------------------|
|-----------------------------------------|
|-----------------------------------------|
|-----------------------------------------|
|-----------1-----------------------------|
|--3--------------------1-----------------|


                                               ~~
   |--3--|  |-----5-----|
   E  E  E  S  S  S  S  S  E  S  S  S  S  E    W
|----------------------12h14p10-------------|-------------||
|-------------------12----------10----------|-------------||
|----------------12----------------11-------|-------------||
|-------------14----------------------12----|-------------||
|----------14----------------------------14-|-------------||
|-12h15p14----------------------------------|-12----------||
|
|                                                    ~
|  Q        Q              Q        Q          Q  Q  H
|-------------------------------------------|-------------||
|-------------------------------------------|-------------||
|-------------------------------------------|-------------||
|-------------------------------------------|-------------||
|-----------2-------------------------------|-----1-------||
|--0-----------------------0--------2-------|--3-----1----||


 Bridge
  Q=140
  N.C.
 3/4
  Gtr I
        PM                          PM
  E E E E E E   E E E E E E   E E E E E E   E E E E E E
|-------------|-------------|-------------|-------------|
|-------------|-------------|-------------|-------------|
|-------------|-------------|-------------|-------------|
|-------------|-------------|-------------|-------------|
|---2-------3-|---2---5-4---|---2-------3-|---2---5-4---|
|-0---0-3-1---|-0---0-----5-|-0---0-3-1---|-0---0-----5-|


                  1.,2.,3.        4.
    N.C.                          (E5)      C5   F#G5B5BbF5
                                                7/8
    Gtrs I, II
          PM      PM  PM          PM    PM|      PM------|
    E E E E E E   E E E E E E  4x E E E S S Q    E E E E E Q
||--------------|--------------||--------------|---------------|
||o-------------|-------------o||--------------|---------------|
||--------------|--------------||--------------|---------------|
||--------------|--------------||-----------5--|-----4-3-------|
||o---2-------3-|---2---5-4---o||---2-------3--|-4-5-2-1-3-----|
||--0---0-3-1---|-0---0-----5--||-0---0-0-0----|-2-3-----1-----|


                                              1.,2.,3.
    (E) C5 F#G5B5BbF5           N.C.
   5/4                         3/4
    PM|    PM------|            PM  PM--|     PM  PM
    S S Q  E E E E E Q   3x     E E E E E E   E E E E E E  4x
||-----------------------||-||--------------|--------------||
||o---------------------o||-||o-------------|-------------o||
||-----------------------||-||--------------|--------------||
||------5------4-3-------||-||--------------|--------------||
||o-----3--4-5-2-1-3----o||-||o---2-------3-|---2---5-4---o||
||--0-0----2-3-----1-----||-||--0---0-3-1---|-0---0-----5--||


  4.
                                       D.S. al Fine
  (E)       C5   F#G5B5BbF5       (E) C5 F#G5B5BbF5
                7/8              5/4
        PM|      PM------|        PM|    PM------|
  E E E S S Q    E E E E E Q      S S Q  E E E E E Q   3x
|--------------|--------------||-----------------------||
|--------------|--------------||o---------------------o||
|--------------|--------------||-----------------------||
|-----------5--|-----4-3------||------5------4-3-------||
|---2-------3--|-4-5-2-1-3----||o-----3--4-5-2-1-3----o||
|-0---0-0-0----|-2-3-----1----||--0-0----2-3-----1-----||



Duration Legend
---------------
W - whole; H - half; Q - quarter; E - 8th; S - 16th; T - 32nd; X - 64th; a - acciaccatura
+ - note tied to previous; . - note dotted; .. - note double dotted
Uncapitalized letters represent notes that are staccato (1/2 duration)
Irregular groupings are notated above the duration line
Duration letters will always appear directly above the note/fret number it represents the
duration for.  Duration letters with no fret number below them represent rests.  Multi-
bar rests are notated in the form Wxn, where n is the number of bars to rest for.  Low
melody durations appear below the staff

Tablature Legend
----------------
 h   - hammer-on
 p   - pull-off
 b   - bend
 pb  - pre-bend
 r   - bend release (if no number after the r, then release immediately)
 /\  - slide into or out of (from/to "nowhere")
 s   - legato slide
 S   - shift slide
 - natural harmonic
[n]  - artificial harmonic
n(n) - tapped harmonic
 ~   - vibrato
 tr  - trill
 T   - tap
 TP  - trem. picking
 PM  - palm muting
\n/  - tremolo bar dip; n = amount to dip
 \n  - tremolo bar down
 n/  - tremolo bar up
/n\  - tremolo bar inverted dip
 =   - hold bend; also acts as connecting device for hammers/pulls
 <> - volume swell (louder/softer)
 x   - on rhythm slash represents muted slash
 o   - on rhythm slash represents single note slash

Misc Legend
-----------
 |  - bar
||  - double bar
||o - repeat start
o|| - repeat end
*|  - double bar (ending)
 :  - bar (freetime)
 $  - Segno
 &  - Coda
Tempo markers -  = BPM(8/16=s8/s16), where s8 = swing 8ths, s16 = swing 16ths
            
Submit corrections


        Living Monstrosity lessons Hard to play? Try these video lessons and learn fast Living Monstrosity lessons
        
↑ Back to top | Tablatures and chords for acoustic guitar and electric guitar, ukulele, drums are parodies/interpretations of the original songs. You may use it for private study, scholarship, research or language learning purposes only