» » »

Death - Leprosy Tabs

Artists:  A B C D E F G H I J K L M N O P Q R S T U V W X Y Z # 

Leprosy Tabs

(ver. 1) Click to play this song!
Death
 Rating:
4/5 (4 votes)

 Leprosy lessons Tabs too difficult? Try these video lessons and learn fast
 
                Version 1.0 - October 1998
NOTES:
Tuning: Tune down one whole step (1:D, 2:G, 3:C, 4:F, 5:A, 6:D)

Timing: Listen to music for actual timing...

Notation: When two guitars are listed play all guitars simultaneously.
          b = bend        	/ = slide up            a.h. = artificial
          bf= bend full  	br= bend release               harmonic
          h = hammer-on         \ = slide down                 
          p = pull-off          . = palm mute(pm)          t = tapping
          " = tremolo picking
	 

 Riff A.1
|---------------------|
|---------------------|
|-3--4--7---2--3--6---|GTR I
|-3--4--7---2--3--6---| & II
|-1--2--5---0--1--4---|
|---------------------|

 Riff A.2
|---------------------------------------------------|
|---------------------------------------------------|
|-3-----4------7-----------2-----3------6-----------|GTR I
|-3-----4------7-----------2-----3------6-----------| 
|-1-----2------5-----------0-----1------4-----------|
|---------------------------------------------------|
|                                                   |
|---------------------------------------------------|
|---------------------------------------------------|
|----------------2-3---2-3--------------------------|GTR II
|---3-4---3-4--0-----0-------2-3---2-3----6-7---6-7-|
|-1-----1------------------0-----0------4-----4-----|
|---------------------------------------------------|

 Riff A.3
|---------------------------------------------------|
|---------------------------------------------------|
|----------------2-3---2-3--------------------------|GTR I
|---3-4---3-4--0-----0-------2-3---2-3----6-7---6-7-| & II
|-1-----1------------------0-----0------4-----4-----|
|---------------------------------------------------|

Play Riff A.1 two times
Play Riff A.2 two times
Play Riff A.3 two times

 Riff B.1
|-----------------------------------------|
|-----------------------------------------|
|-----------------------------------------|GTR I
|-----------------------------------------| & II
|--------------444444--------333333333333-|
|-555555555555--------444444--------------|
  ............ ...... ...... ............

 continuation of Riff B.1
|-----------------------------------------|
|-----------------------------------------|
|-----------------------------------------|GTR I
|-----------------------------------------| & II
|--------------222222--------111111111111-|
|-333333333333--------222222--------------|
  ............ ...... ...... ............

 Riff B.2
|-------------|
|-------------|
|-------------|GTR I
|-4-3-1-3-----| & II
|---------4-3-|
|-------------|

Play Riff B.1 four times
Play Riff B.2 one time

 Riff C
|-----------------------------------|
|-----------------------------------|
|-----4--5-------------5--4---------|GTR I
|-3---4--5-5-2---2-3---5--4-5-2---2-| & II
|-3---2--3-5-2---2-3---3--2-5-2---2-|
|-1--------3-0---0-1--------3-0---0-|

Play Riff C four times

 Riff D
|---------------------------------------|
|---------------------------------------|
|---------------------------------------|GTR I
|---------------------------------------| & II
|--------6655---------------6655--------|
|-446677------667766-446677------667766-|

 continuation of Riff D
|---------------------------------------|
|---------------------------------------|
|---------------------------------------|GTR I
|---------------------------------------| & II
|--------5544---------------5544--------|
|-335566------556655-335566------556655-|

 continuation of Riff D
|---------------------------------------|
|---------------------------------------|
|---------------------------------------|GTR I
|--------7766---------------7766--------| & II
|-557788------778877-557788------778877-|
|---------------------------------------|

 continuation of Riff D
|---------------------------------------|
|---------------------------------------|
|---------------------------------------|GTR I
|--------6655---------------6655--------|
|-446677------667766-446677------667766-|
|---------------------------------------|
| ......      ...... ......      ...... |
|*=a.h.                                 |
|---------------------------------------|
|---------------------------------------|
|---------------------------------------|GTR II
|--------6655---------------6-5---------|
|-446677------667766-446677-*-*--6-7-6--|
|--------------------------------*-*-*--|
  ......      ...... ...... 

Play Riff D two times

 Riff E
|-------------------------------|
|-------------------------------|
|-------------------------------|GTR I
|--------5------4------5------4-| 
|-222222---2222---2222---2222---|
|-------------------------------|
  ......   ....   ....   ....

 continuation of Riff E
|--------------------------|
|--------------------------|
|--------------------------|GTR I
|--------5------4------5-5-|
|-223333---3333---3333-5-5-|
|----------------------3-3-|
| ......   ....   ....     |
|                          |
|--------------------------|
|--------------------------|
|--------------------------|GTR II
|---------------/\/\/\-5-5-|
|---------------/\/\/\-5-5-|
|----------------------3-3-|

 continuation of Riff E
|--------------------------------------------------------|
|--------------------------------------------------------|
|--------------------------------------------------------|GTR I
|--------5------4------5------4--------5------4------5-5-| & II
|-222222---2222---2222---2222---223333---3333---3333-5-5-|
|----------------------------------------------------3-3-|
  ......   ....   ....   ....   ......   ....   ....
                           
Play Riff E one time

 Riff F.1
|--------------------------------------------------------|
|--------------------------------------------------------|
|--------------------------------------------------------|GTR I
|----------------------------------------------------2-2-| & II
|--------5------4------5------4--------5------4------2-2-|
|-222222---2222---2222---2222---223333---3333---3333-0-0-|
  ......   ....   ....   ....   ......   ....   ....

 Riff F.2
|--------------------------------------------------------|
|--------------------------------------------------------|
|--------------------------------------------------------|GTR I
|--------5------4------5------4--------5------4------5-5-| & II
|-222222---2222---2222---2222---223333---3333---3333-5-5-|
|----------------------------------------------------3-3-|
  ......   ....   ....   ....   ......   ....   ....

 Riff F.3
|----------------------------------------------------------|
|----------------------------------------------------------|
|----------------------------------------------------5-----|GTR I
|--------5------4------5------4--------5------4------5-5-2-| & II
|-222222---2222---2222---2222---223333---3333---3333-3-5-2-|
|------------------------------------------------------3-0-|
  ......   ....   ....   ....   ......   ....   ....

Play Riff F.1 two times
Play Riff F.2 two times

 Riff G
|---------------------|
|---------------------|
|---------------------|GTR I
|-2---6---3---5---5-3-| & II
|-2---6---3---5---5-3-|
|-0---4---1---3---3-1-|

Play Riff G three times

 Riff H
|-----------------------------------|
|-----------------------------------|
|-----------------------------------|GTR I
|-----------------------------------| & II
|-----------------------------------|
|-0000000000000000-4444444444444444-|
  ................ ................

 continuation of Riff H
|------------------------------------|
|------------------------------------|
|------------------------------------|GTR I
|--------------------------------5-3-| & II
|--------------------------------5-3-|
|-1111111111111111-3333333333333-3-1-|
  ................ .............

Play Riff H four times

 Riff I.1
|-------------------------------------|
|-------------------------------------|
|-------------------------------------|GTR I
|-------------------------------------| & II
|----------22222222----------11111111-|
|-00000000----------33332222----------|
| ........ ........ ........ ........ |
|                                     |
|----------7-----------------6--------|
|-5-----------------8---7-------------|
|-------------------------------------|GTR III
|-------------------------------------|
|-------------------------------------|
|-------------------------------------|

 continuation of Riff I.1
|-------------------------------------|
|-------------------------------------|
|-------------------------------------|GTR I
|-------------------------------------| & II
|----------22222222----------1111-----|
|-00000000----------33332222-----1111-|
| ........ ........ ........ ........ |
|                                     |
|----------7-----------------6--------|
|-5-----------------8---7--------6----|
|-------------------------------------|GTR III
|-------------------------------------|
|-------------------------------------|
|-------------------------------------|

 Riff I.2
|-------------------------------------|
|-------------------------------------|
|-------------------------------------|GTR I
|-------------------------------------| & II
|----------22222222----------11111111-|
|-00000000----------33332222----------|
  ........ ........ ........ ........ 

 continuation of Riff I.2
|-------------------------------------|
|-------------------------------------|GTR I
|-------------------------------------| & II
|----------22222222----------1111-----|
|-00000000----------33332222-----1111-|
  ........ ........ ........ ........ 

Play Riff I.1 two times
Play Riff I.2 two times

 Riff J.1
|-----------------------------------------|
|-----------------------------------------|
|-----------------------------------------|GTR I
|-----------------------------------------| & II
|-------------------222211111111----------|
|-33333333-22222222--------------11111111-|
  ........ ........ ............ ........
 
 continuation of Riff J.1
|-----------------------------------------|
|-----------------------------------------|
|-----------------------------------------|GTR I
|-----------------------------------------| & II
|-------------------222211111111-33333333-|
|-33333333-22222222-----------------------|
  ........ ........ ............ ........

 Riff J.2
|-----------------------------------------|
|-----------------------------------------|
|-----------------------------------------|GTR I
|-----------------------------------------| & II
|-------------------222211111111----------|
|-33333333-22222222--------------11111111-|
  ........ ........ ............ ........
 
 continuation of Riff J.2
|--------------------------|
|--------------------------|
|--------------------------|GTR I
|-------------------4-3--5-| & II
|-------------------2-1--3-|
|-33333333-22222222--------|
  ........ ........ 

Play Riff J.1 one time
Play Riff J.2 one time

Play Riff B.1 four times
Play Riff B.2 one time
Play Riff C four times
Play Riff D two times
Play Riff E one time
Play Riff F.1 two times
Play Riff F.2 one time
Play Riff F.3 one time
End
            
Submit corrections


        Leprosy lessons Hard to play? Try these video lessons and learn fast Leprosy lessons
        
↑ Back to top | Tablatures and chords for acoustic guitar and electric guitar, ukulele, drums are parodies/interpretations of the original songs. You may use it for private study, scholarship, research or language learning purposes only