» » »

Death - Flesh And The Power It Holds Tabs

Artists:  A B C D E F G H I J K L M N O P Q R S T U V W X Y Z # 

Flesh And The Power It Holds Tabs

(ver. 1) Click to play this song!
Death
 Rating:
4/5 (4 votes)

 Flesh And The Power It Holds lessons Tabs too difficult? Try these video lessons and learn fast
 
                 
Tuning = D (D,G,C,F,A,D)

 Riff A                                   
|-------------------------------------------------------|
|------12-12/18-------------12-12/15--------------12----|
|---11----------17-------11----------14--------11----11-|GTR I
|-9----------------15~-9----------------12~-9-----------|
|-------------------------------------------------------|
|-------------------------------------------------------|
|                                                       |
|-------------------------------------------------------|
|------12-12/18-------------12-12/15--------------24----|
|---11----------17-------11----------14--------23----23-|GTR II
|-9----------------15~-9----------------12~-21----------|
|-------------------------------------------------------|
|-------------------------------------------------------|

                      

|----------------------------------------------------------------------|
|------12-12/18--------------15-18-------------17-20-------------22----|
|---11----------17--------14-------17-------16-------19-------21----21-|GTR  
|-9----------------15~-12-------------15-14-------------17-19----------| I
|----------------------------------------------------------------------|
|----------------------------------------------------------------------|
|                                                                      |
|----------------------------17-20-------------19-22-------------24----|
|------12-12/18-----------17-------20-------19-------22-------24----24-|
|---11----------17-----14-------------17-16-------------19-21----------|GTR
|-9----------------15~-------------------------------------------------| II
|----------------------------------------------------------------------|
|----------------------------------------------------------------------|

Play Riff A three times


Riff B.1 
|---------------------------------------------------|
|---------------------------------------------------|
|---------------------------------------------------|GTR I
|---7---7~---10---10-9-------12---12~---10---910/9-|
|-0---0----0----0------10--0----0-----0----0--------|
|---------------------------------------------------|
|                                                   |
|---------------------------------------------------|
|---------------------------------------------------|
|---------------------------------------------------|GTR II
|-7------------------------7------------------------|
|-7------------------------7------------------------|
|-5------------------------5------------------------|


Riff B.2
|----------------------------------------------------|
|----------------------------------------------------|
|----------------------------------------------------|GTR I
|---7---7~---10---10-9-------12---12~---10---910/9--|
|-0---0----0----0------10--0----0-----0----0---------|
|----------------------------------------------------|
|                                                    |
|----------------------------------------------------|
|----------------------------------------------------|
|---14---14~--17---17-16-----19---19~---17--1617/16-|GTR II
|-----------------------17---------------------------|
|-0----0----0----0---------0----0-----0----0---------|
|----------------------------------------------------|
|	                                             |		   
|----------------------------------------------------|
|----------------------------------------------------|
|---/9--------/4-------------------------------------|GTR III
|---/7--------/2-------------/10--------/5-----------|
|----------------------------/08--------/3-----------|
|----------------------------------------------------|


Play Riff B.1 two times
Play Riff B.2 two times


Riff C 
|---------------------------------|
|---------------------------------|
|-----9---9-----------------------|GTR I
|---7-------7---7---10-09h10p09---|
|-0-----0-----0---0------------10-|
|---------------------------------|
| . .   .     .   .               |
|                                 |
|---------------------------------|
|-------------------13-12h13p12---|
|-----9---9--------------------12-|GTR II (2nd time only)
|---7-------7---7-----------------|
|-0-----0-----0---0---------------|
|---------------------------------|
  . .   .     .   . 


|--------------------------------------------------|
|--------------------------------------12----------|
|------12---12-----------10-09h10p09---------12----|GTR I
|---10---------10---10--------------10-----9----9--|
|-0-------0-------0----0---------------------------|
|--------------------------------------------------|
| . .     .       .                                |
|                                                  |
|--------------------------------------15----------|
|------------------------13-12h13p12---------15----|
|------12---12----------------------12----12----12-|GTR II 
|---10---------10---10-----------------------------|(2nd Time Only)
|-0-------0-------0----0---------------------------|
|--------------------------------------------------|
  . .     .       .


Play Riff C two times


Riff D
|------------------------------|----------------------------|
|------------------------------|----------------------------|
|------------------------------|--------------------------2-|GTRS I
|-2-----3~-2-----3-----5---3---|-2-----3~-2-----3-----5-----|  & II
|---000------000---0-0---0---0-|---000------000---0-0---0---|
|------------------------------|----------------------------|
|   ...      ...   . .   .   . |   ...      ...   . .   .
|                              |
|------------------------------|
|------------------------------|
|-4-----5~-4-----5-----7---5---|GTR III(every other time) 
|------------------------------|
|---000------000---0-0---0---0-|
|------------------------------|
    ...      ...   . .   .   . 


Riff E
|-------------------|
|-------------------|
|--------------7----|GTRS I
|-10---9---10--5--7-|  & II
|--8---7----8--5--5-|
|--8---7----8-----5-|


Play Riff D four times
Play Riff E one time
Play Riff D four times
Play Riff E one time


Riff F
|-------------------------|-------------------------|
|-------------------------|-------------------------|
|-------------------------|-------------------------|GTR I
|-6-----6-----6-----6-----|-------------------------|
|---5-----5-----5-----5---|-5-5-5-6-6-6-2-2-2-3-3-3-|
|-----4-----4-----4-----4-|-3-3-3-4-4-4-0-0-0-1-1-1-|
|                           . . . . . . . . . . . . |
|                                                   |
|-------------------------|-------------------------|
|-------------------------|-------------------------|
|-8-----8-----8-----8-----|-------------------------|GTR II
|---7-----7-----7-----7---|-------------------------|
|-----6-----6-----6-----6-|-5-5-5-6-6-6-2-2-2-3-3-3-|
|-------------------------|-3-3-3-4-4-4-0-0-0-1-1-1-|
                            . . . . . . . . . . . . 

Play Riff F four times (last time segue into Riff G.1)


Riff G.1
|---------------------------------------|
|---------------------------------------|
|---------------------------------------|GTRS I
|-------------------------4-4-4-3-3-3---|  & II
|-5-5-5-6-6-6-2-2-2-3-3-3-2-2-2-1-1-1-4-| 
|-3-3-3-4-4-4-0-0-0-1-1-1-------------2-| 
  . . . . . . . . . . . . . . . . . . .


Play Riff G.1 four times (last time segue into Riff G.2)


Riff G.2
|----------------------------------------|
|----------------------------------------|
|----------------------------------------|GTRS I
|-----5-----6-------------4-4-4-3-3-3--4-|  & II
|-5-5-5-6-6-6-2-2-2-3-3-3-2-2-2-1-1-1--4-|
|-3-3-3-4-4-4-0-0-0-1-1-1--------------2-| 
  . .   . .   . . . . . . . . . . . . 


Play Riff G.2 four times


Riff H
|--------------------------------------------|
|--------------------------------------------|
|--------------------------------------------|GTR I
|-5----55-5-5----55-5-5----55-5-4----44-4-4~-|
|---33--------33--------22--------22---------|
|--------------------------------------------|
|                                            |
|--------------------------------------------|
|--------------------------------------------|
|--------------------------------------------|GTR II
|-5---------5---------5---------4------------|
|-3---------3---------2---------2------------|
|--------------------------------------------|
|                                            |
|--------------------------------------------|
|--------------------------------------------|
|-7----77-7-7----77-7-7----77-7-6----66-6-6~-|GTR III(2nd time only)
|---55--------55--------44--------44---------|
|--------------------------------------------|
|--------------------------------------------|


Riff I.1
|-------------------------------------|
|-------------------------------------|
|-------------------------------------|GTRS I
|-------------------------------------|  & II
|-6--------6--------6--------6--------|
|---444444---444444---444444---444444-|
    ......   ......   ......   ......


|-------------------------------------|
|-------------------------------------|
|-------------------------------------|GTRS I
|-------------------------------------|  & II
|-6--------6--------5--------5--------|
|---333333---333333---333333---333333-|
    ......   ......   ......   ......



Riff I.2
|-------------------------------------|
|-------------------------------------|
|-------------------------------------|GTR I
|-------------------------------------|
|-6--------6--------6--------6--------|
|---444444---444444---444444---444444-|
|   ......   ......   ......   ...... |
|                                     |
|-------------------------------------|
|-------------------------------------|
|-------------------------------------|GTR II
|-8--------8--------8--------8--------|
|---666666---666666---666666---666666-|
|-------------------------------------|
    ......   ......   ......   ......


|---------------------------------|
|---------------------------------|
|---------------------------------|GTR I
|----------------------------a.h.-|
|-6--------6--------5--------5~---|
|---333333---333333---333333------|
|   ......   ......   ......      |
|                                 |
|---------------------------------|
|---------------------------------|
|----------------------------a.h.-|GTR II
|-8--------8--------7--------7~---|
|---555555---555555---555555------|
|---------------------------------|
    ......   ......   ......


Play Riff H two times
Play Riff I.1 one time
Play Riff I.2 one time
Play Riff H two times
Play Riff I.1 one time
Play Riff I.2 one time


Riff J 
|----------------------------------------------------------|
|----------------------------------------------------------|
|----------------------------------------------------------|GTR I
|----------4/5~-----------87~-----------4/5~----7/87-6~--|
|-2-2-2-2--------2-2-2-2--------2-2-2-2--------2-----------|
|-0-0-0-0--2/3~--0-0-0-0--65~--0-0-0-0--2/3~--0-5/65-4~--|
| . . . .        . . . .        . . . .        .           |
|                                                          |
|----------------------------------------------------------|
|----------------------------------------------------------|
|----------6/7~----------109~-----------6/7~----9/109-8~-|GTR II
|----------4/5~-----------87~-----------4/5~----7/087-6~-|
|-2-2-2-2--------2-2-2-2--------2-2-2-2--------2-----------|
|-0-0-0-0--------0-0-0-0--------0-0-0-0--------0-----------|
  . . . .        . . . .        . . . .        . 


Play Riff J four times


GUITAR INTERLUDE: UNDER SOLO
Riff K.1
|-------------------------|
|-------------------------|
|-------------------------|GTRS I
|-5---------5-------------|  & II
|---4---4-----4---4---4---|
|-----2---2-----2---2---2-|


Riff K.2
|---------------------------------|
|---------------------------------|
|---------------------------------|GTRS I
|-----4-----5-----4---------------|  & II
|---2-----2-----2-----2-5---2-4---|
|-0-----0-----0-----0-----0-----0-|


|---------------------------------|
|---------------------------------|
|-----------------4-----2---------|GTRS I
|-----4-----5-----------------4---|  & II
|---2-----2-----2-----2-----2---5-|
|-0-----0-----0-----0-----0-------|


Repeat 3 times:
Play Riff K.1 four times 
Play Riff K.2 one time


Riff L (under bass interlude)
|-----------------------------------------|
|-----------------------------------------|
|-----------------------------------------|GTRS I
|-3----2----3----2----3----2----3----2----|  & II 
|-3----2----3----2----3----2----3----2----|
|-1----0----1----0----1----0----1----0----|


Play Riff L one time
Play Riff D four times
Play Riff E one time
Play Riff D four times
Play Riff E one time
Play Riff F four times (last time segue into Riff G.1)
Play Riff G.1 four times (last time segue into Riff G.2)
Play Riff G.2 four times
Play Riff H two times
Play Riff I.1 one time
Play Riff I.2 one time
Play Riff H two times
Play Riff I.1 one time
Play Riff I.2 one time
            
Submit corrections


        Flesh And The Power It Holds lessons Hard to play? Try these video lessons and learn fast Flesh And The Power It Holds lessons
        
↑ Back to top | Tablatures and chords for acoustic guitar and electric guitar, ukulele, drums are parodies/interpretations of the original songs. You may use it for private study, scholarship, research or language learning purposes only