» » »

Death - Destiny Tabs

Artists:  A B C D E F G H I J K L M N O P Q R S T U V W X Y Z # 

Destiny Tabs

(ver. 2) Click to play this song!
Death
 Rating:
4/5 (4 votes)

 Destiny lessons Tabs too difficult? Try these video lessons and learn fast
 
                -----2-3-2-------2-3-2-------------3-----------3------------------------------
---------------------------------3---3-------3---3----------------------------
---4-------4---4-------4---4---5-------5---5-------5---5----------------------
-2-----------2-----------2---3-----------3-----------3------------------------
 Guitar 1                                                  REPEAT             

----7-7-----5-7-8-5--------------------------8--------------------------------
-5----------------------6--6-------/10---10-----10----------------------------
--------------------5---------------------------------------------------------
 Guitar 2                                                                     

----7h8------5-11-12------14--10--12-------/5--3--5---------------------------
-10-----10-5--------------------------12-------------3/5----------------------
----------------------------------------------------------5-------------------
 Guitar 2                                                                     

-7-----7-----------------------------------------------/8--8------------------
---8-5-----/10p8---7b8r7----------/6---6-----/10--10--------------------------
--------------------------4--5------------------------------------------------
 Guitar 2
            
Submit corrections


        Destiny lessons Hard to play? Try these video lessons and learn fast Destiny lessons
        
↑ Back to top | Tablatures and chords for acoustic guitar and electric guitar, ukulele, drums are parodies/interpretations of the original songs. You may use it for private study, scholarship, research or language learning purposes only