» » »

Death - 1,000 Eyes Tabs

Artists:  A B C D E F G H I J K L M N O P Q R S T U V W X Y Z # 

1,000 Eyes Tabs

(ver. 2) Click to play this song!
Death
 Rating:
4.6/5 (11 votes)

 1,000 Eyes lessons Tabs too difficult? Try these video lessons and learn fast
 
                Death

Not sure if there's already one on the site, I just heard it, liked it and tabbed it. 
for looking.

D||-----------------------------------------------------------|
A||-/18p-17p-15-----------------------------------------------|
F||-------------17p-16p-14------------------------------------|
C||------------------------17p-15-17p-15p-14----14h-15p-14----|
G||------------------------------------------17------------17-|
D||-----------------------------------------------------------|

----------------------|---------------------17----------------|
----------------------|---------17----18----------18----17----|
----------------------|--/19----------------------------------|
----------------------|---------------------------------------|
--14~-------(14)------|---------------------------------------|
----------------------|---------------------------------------|

-------------------------------|
-------------------------------|
--19----17----------16~--------|
--------------19---------------|
-------------------------------|
-------------------------------|

-----------------------------------------------------------|
-----------------------------------------------------------|
------------------------------17p-16p-14-------------------|
---------------------------17------------17p-15p-14--------|
-------------17h-19-20p-17--------------------------17p-15-|
--17h-19h-20-----------------------------------------------|

-----------------------------------------------|
----------------18p-17p-15---------------------|
--17p-16p-14---------------17p-16-14h-16~------|
-------------17--------------------------------|
-----------------------------------------------|
-----------------------------------------------|

--------------------------------------|------------------------------|
--------------------15----17----18----|--------17--------------------|
--14----16----17----------------------|--16----------16----17--------|
--------------------------------------|------------------------------|
--------------------------------------|------------------------------|
--------------------------------------|------------------------------|

--------------------------------------------------|
--17-17-17-18-17-18-17-15-------15-15-17-15-17-15-|
--------------------------17-16-------------------|
--------------------------------------------------|
--------------------------------------------------|
--------------------------------------------------|

-------------------------------------------|
-------------------------------------------|
--17-16-14---------------------------------|
-----------15-14-12--12h-14----------------|
----------------------------15-14---(14)\--|
-------------------------------------------|

---------12-13-10h-12p-10-----------------------------------------------|
------12------------------13-12-10-12p-10-------------------------------|
--/12-------------------------------------12-10-12-10-9----10p-9--------|
--------------------------------------------------------12-------12p-10-|
------------------------------------------------------------------------|
------------------------------------------------------------------------|

---------------------|
---------------------|
--9~-----------------| Not sure if the next part is part of the solo or not.
---------------------|
---------------------|
---------------------|
            
Submit corrections


        1,000 Eyes lessons Hard to play? Try these video lessons and learn fast 1,000 Eyes lessons
        
↑ Back to top | Tablatures and chords for acoustic guitar and electric guitar, ukulele, drums are parodies/interpretations of the original songs. You may use it for private study, scholarship, research or language learning purposes only