Home » D » Dean Ray »

Dean Ray - Coming Back Bass

Artists:  A B C D E F G H I J K L M N O P Q R S T U V W X Y Z # 

Coming Back Bass

(ver. 1) Click to play this song!
Dean Ray
INTRO AND VERSE 1 

G|-9--9--9--7--5--5--5--4--2--2--2--2--7--7--7--8-|    
D|------------------------------------------------| X4
A|------------------------------------------------|
E|------------------------------------------------|

G|-9--9--9--7--5--5--5--4--2--2--2--2--4----|
D|------------------------------------------|
A|------------------------------------------|
E|------------------------------------------|

CHORUS

G|---------9---7---------------------------7---8-------------------------------------7-----|
D|---------------------------------------------------------------------------------9---9-7-|
A|--7----7---5---3------2--0--------5----5---6---7------5--3------2--0--------5------------|
E|-----------------------------------------------------------------------------------------|

G|-------------------------------------7---8--------------------------------------|
D|--------------------------------------------------------------------------------|
A|-7------5--3------2--0--------5----5---6---7------5--3------2--0------5----5--6-|
E|--------------------------------------------------------------------------------|

G|-9--9--9--7--9--9--9--7-|
D|------------------------|
A|------------------------|
E|------------------------|

VERSE 2

G|-9--9--9--7--5--5--5--4--2--2--2--2--7--7--7--8-|    
D|------------------------------------------------| X2
A|------------------------------------------------|
E|------------------------------------------------|

G|-9--9--9--7--5--5--5--4--2--2--2--2--4------|
D|--------------------------------------------|
A|--------------------------------------------|
E|--------------------------------------------|

CHORUS

G|-----------9---7---------------------------7---8-------------------------------------7-----|
D|-----------------------------------------------------------------------------------9---9-7-|
A|--7------7---5---3------2--0--------5----5---6---7------5--3------2--0--------5------------|
E|-------------------------------------------------------------------------------------------|

G|---------------------------------------7---8-----------------------------------------------|
D|-------------------------------------------------------------------------------------------|
A|--7------5---3------2--0--------5----5---6---7------5--3------2--0--------5----5--6--7-----|
E|-------------------------------------------------------------------------------------------|

GUITAR SOLO(No Bass)

FINAL CHORUS AND OUTRO

G|-----------9---7---------------------------7---8-------------------------------------7-----|
D|-----------------------------------------------------------------------------------9---9-7-|
A|--7------7---5---3------2--0--------5----5---6---7------5--3------2--0--------5------------|
E|-------------------------------------------------------------------------------------------|

G|---------------------------------------7---8--------------------------------------|
D|----------------------------------------------------------------------------------|
A|--7------5---3------2--0--------5----5---6---7------5--3------2--0------5----5--6-|
E|----------------------------------------------------------------------------------|

G|------------------------------------------------------------------------------------|
D|------------------------------------------------------------------------------------|
A|--7------5---3------2--0--------5----5---6---7------5--3------2--0--------5----5--6-|
E|------------------------------------------------------------------------------------|
            
Submit corrections

↑ Back to top | Tablatures and chords for acoustic guitar and electric guitar, ukulele, drums are parodies/interpretations of the original songs. You may use it for private study, scholarship, research or language learning purposes only