Home » D » Dead Milkmen »

Dead Milkmen - I Against Osbourne Tabs

Artists:  A B C D E F G H I J K L M N O P Q R S T U V W X Y Z # 

I Against Osbourne Tabs

(ver. 1) Click to play this song!
Dead Milkmen
"I Against Osbourne"
The Dead Milkmen

Another one of my favorite Milkmen songs. By ear as always ...

Intro:
[let ring]
  Am
E-8--
B-10-
G-9--
D-7--
A----
E----


Verse:
  Am                F                    C  B  Am    C  B  Am
E----------------------------------------8--7--5-----8--7--5----|
B-5---5---5--5-5----10---10---10--10-10--8--7--5-----8--7--5----|
G-5---5---5--5-5----10---10---10--10-10--9--8--5-5---9--8--5-5--|
D-7---7---7--7-7----10---10---10--10-10--10-9--7-7---10-9--7-7--|
A-7---7---7--7-7----8----8----8---8--8---10-9--7-7---10-9--7-7--|
E----------------------------------------8--7--5-5---8--7--5-5--|


Chorus:
  F               G               C               C(E)
E------------------------------------------------------------------|
B-1-1-1-1-1-1-1-1-3-3-3-3-3-3-3-3-5-5-5-5-5-5-5-5-5-5-5-5-5-5-5-5--|
G-2-2-2-2-2-2-2-2-4-4-4-4-4-4-4-4-5-5-5-5-5-5-5-5-5-5-5-5-5-5-5-5--|
D-3-3-3-3-3-3-3-3-5-5-5-5-5-5-5-5-5-5-5-5-5-5-5-5-5-5-5-5-5-5-5-5--|
A-3-3-3-3-3-3-3-3-5-5-5-5-5-5-5-5-3-3-3-3-3-3-3-3-3-3-3-3-3-3-3-3--|
E------------------------------------------------(0-0-0-0-0-0-0-0)-|

  F               G
E-----------------------------------|
B-1-1-1-1-1-1-1-1-3-3-3-3-3-3-3-3---|
G-2-2-2-2-2-2-2-2-4-4-4-4-4-4-4-4---|
D-3-3-3-3-3-3-3-3-5-5-5-5-5-5-5-5---|
A-3-3-3-3-3-3-3-3-5-5-5-5-5-5-5-5---|
E-----------------------------------|

Don't have to play the open E's but you can if you want to make some distinction( i.e. 
you don't have a bassist :p )


Interlude:
  D          D# E
E-2-2-2-0-2--3--4-4-5-4--|
B-3-3-3-3-3--4--5-5-5-5--|
G-2-2-2-2-2--3--4-4-4-4--|
D-0-0-0-0-0--0--0-0-0-0--|
A------------------------|
E------------------------|

Fiddle around with that, he plays a little ditty but it's too insignificant to tab. :p

FIN!
            
Submit corrections

↑ Back to top | Tablatures and chords for acoustic guitar and electric guitar, ukulele, drums are parodies/interpretations of the original songs. You may use it for private study, scholarship, research or language learning purposes only