Home » D » Dead Milkmen »

Dead Milkmen - Beach Party Vietnam Bass

Artists:  A B C D E F G H I J K L M N O P Q R S T U V W X Y Z # 

Beach Party Vietnam Bass

(ver. 1) Click to play this song!
Dead Milkmen
"Beach Party Vietnam" by The Dead Milkmen
I just separated them into parts. On Part C, there's variations with rests and 
tied notes so listen carefully to the song so you get them.

Part A
G -------------5-4|
D -0-0-4-4-0-0----|
A ----------------|
E ----------------|

Part B
G ----------------|
D -5-5-5-5-5-5-5-5|
A ----------------|
E ----------------|
Part C
G ------------55-4|
D -0-0-4---0-0----|
A ----------------|
E ----------------|
Part D
G ------------------------|
D -0-0-4-4-5-5-6-6-7--7540|
A ------------------------|
E ------------------------|
Part E
G -5~|
D ---|
A ---|
E ---|

Part A x6
Part B x1
Part A x1
Part C x6
Part A x2
Part B x1
Part A x1
Part C x7
Part A x2
Part B x1
Part A x1
Part C x6
Part A x2
Part B x1
Part A x1
Part D x1
Part E x1
            
Submit corrections

↑ Back to top | Tablatures and chords for acoustic guitar and electric guitar, ukulele, drums are parodies/interpretations of the original songs. You may use it for private study, scholarship, research or language learning purposes only