Home » D » Dead Mans Bones »

Dead Mans Bones - Follow The Night Light Tabs

Artists:  A B C D E F G H I J K L M N O P Q R S T U V W X Y Z # 

Follow The Night Light Tabs

(ver. 1) Click to play this song!
Dead Mans Bones
[Intro]

e|-7-7---7-7--7-7-7-7-7-----7-7---7-7--7-7-7-7-7----7-7---7-7--7-7-7-7-7----7-7---7-7-7-7-7-7-7-7-7-7-|
B|-8-8---8-8--8-8-8-8-8-----8-8---8-8--8-8-8-8-8----1010--1010-1010101010---7-7---7-7-7-7-7-7-7-7-7-7-|
G|-9-9---9-9--9-9-9-9-9-----7-7---7-7--7-7-7-7-7----9-9---9-9--9-9-9-9-9----8-8---8-8-8-8-8-8-8-8-8-8-|
D|-9-9---9-9--9-9-9-9-9-----9-9---9-9--9-9-9-9-9----7-7---7-7--7-7-7-7-7----9-9---9-9-7-7-7-7-9-9-9-9-|
A|-7-7---7-7--7-7-7-7-7-----7-7---7-7--7-7-7-7-7----7-7---7-7--7-7-7-7-7----9-9---9-9-9-9-9-9-9-9-9-9-|
E|----------------------------------------------------------------------------------------------------|

Repeat intro x2 throughout first verse


[Verse]

(wakatte nakute mo kamawanai)
e|------------------------------------------------------------------------------------------------------|
B|------------------------------------------------------------------------------------------------------|
G|-----------------------------------------------------7--7--7--7--7--7--7--7-7-4--4--4--4--4--4--4-4-4-|
D|2--2--2--2--2--2--2--2--2-2-5--5--5--5--5--5--5--5-5-7--7--7--7--7--7--7--7-7-4--4--4--4--4--4--4-4-4-|
A|2--2--2--2--2--2--2--2--2-2-5--5--5--5--5--5--5--5-5-5--5--5--5--5--5--5--5-5-2--2--2--2--2--2--2-2-2-|
E|0--0--0--0--0--0--0--0--0-0-3--3--3--3--3--3--3--3-3--------------------------------------------------|

(shinjite hoshii nante omowanai)
e|------------------------------------------------------------------------------------------------------|
B|------------------------------------------------------------------------------------------------------|
G|-----------------------------------------------------7--7--7--7--7--7--7--7-7-4--4--4--4--4-4-4--4-4/-|
D|2--2--2--2--2--2--2--2--2-2-5--5--5--5--5--5--5--5-5-7--7--7--7--7--7--7--7-7-4--4--4--4--4-4-4--4-4/-|
A|2--2--2--2--2--2--2--2--2-2-5--5--5--5--5--5--5--5-5-5--5--5--5--5--5--5--5-5-2--2--2--2--2-2-2--2-2/-|
E|0--0--0--0--0--0--0--0-=0-0-3--3--3--3--3--3--3--3-3--------------------------------------------------|


Repeat intro x2 through second verse


[Pre-chorus]

(oshiyoseru hitonami   fumitsukete mo minai furi)
e|---------------------------------------------------------------|
B|-1--1---1--1--0--0---0--0--------------------------------------|
G|-0--0---0--0--2--2---2--2--------------------------------------|
D|-2--2---2--2--2--2---2--2-2--2-2------------2--2-2-------------|
A|-3--3---3--3--0--0---0--0-2--2-2-----5h7----2--2-2-----5h7-----|
E|--------------------------0--0-0--5h7---7p5-0--0-0--5h7---7p5--|


(tayasuku korogaru higeki ga musuu ni)
e|---------------------------------------------------------------|
B|-1--1---1--1--0--0---0--0--------------------------------------|
G|-0--0---0--0--2--2---2--2--------------------------------------|
D|-2--2---2--2--2--2---2--2-2--2-2------------2--2-2-------------|
A|-3--3---3--3--0--0---0--0-2--2-2-----5h7----2--2-2-----5h7-----|
E|--------------------------0--0-0--5h7---7p5-0--0-0--5h7---7p5--|


sukui no te nante nakatta
e|---------------------------------------------|
B|-1--1---1--1--0--0---3-----3-3-3-3-3-3-3-----|
G|-0--0---0--0--2--2---4-----4-4-4-4-4-4-4-----|
D|-2--2---2--2--2--2---2-----2-2-2-2-2-2-2-2-2-|
A|-3--3---3--3--0--0---3-----3-3-3-3-3-3-3-2-2-|
E|-----------------------------------------0-0-|


[Chorus]

 (hoshizora ni taiyou wo uchiageyou)
e|-----------------------------------2--2-2--2-2--2-2-0--0--0--0--0--0--0-0-|
B|-3--3-3--3-3--3-3-3--3-3--3-3--3-3-0--0-0--0-0--0-0-0--0--0--0--0--0--0-0-|
G|-0--0-0--0-0--0-0-2--2-2--2-2--2-2-2--2-2--2-2--2-2-0--0--0--0--0--0--0-0-|
D|-2--2-2--2-2--2-2-0--0-0--0-0--0-0-1--1-1--1-1--1-1-2--2--2--2--2--2--2-2-|
A|-3--3-3--3-3--3-3-0--0-0--0-0--0-0-2--2-2--2-2--2-2-2--2--2--2--2--2--2-2-|
E|----------------------------------------------------0--0--0--0--0--0--0-0-|


(dare yori mo ooki na kagayaki wo)
e|-----------------------------------2--2-2--2-2--2-2-0--0--0--0--0--0--0-0-|
B|-3--3-3--3-3--3-3-3--3-3--3-3--3-3-0--0-0--0-0--0-0-0--0--0--0--0--0--0-0-|
G|-0--0-0--0-0--0-0-2--2-2--2-2--2-2-2--2-2--2-2--2-2-0--0--0--0--0--0--0-0-|
D|-2--2-2--2-2--2-2-0--0-0--0-0--0-0-1--1-1--1-1--1-1-2--2--2--2--2--2--2-2-|
A|-3--3-3--3-3--3-3-0--0-0--0-0--0-0-2--2-2--2-2--2-2-2--2--2--2--2--2--2-2-|
E|----------------------------------------------------0--0--0--0--0--0--0-0-|


(yozora no taiyou ni dekakeyou)
e|-----------------------------------2--2-2--2-2--2-2-0--0--0--0--0--0--0-0-|
B|-3--3-3--3-3--3-3-3--3-3--3-3--3-3-0--0-0--0-0--0-0-0--0--0--0--0--0--0-0-|
G|-0--0-0--0-0--0-0-2--2-2--2-2--2-2-2--2-2--2-2--2-2-0--0--0--0--0--0--0-0-|
D|-2--2-2--2-2--2-2-0--0-0--0-0--0-0-1--1-1--1-1--1-1-2--2--2--2--2--2--2-2-|
A|-3--3-3--3-3--3-3-0--0-0--0-0--0-0-2--2-2--2-2--2-2-2--2--2--2--2--2--2-2-|
E|----------------------------------------------------0--0--0--0--0--0--0-0-|


(PIKAPIKA gin iro no hikousen de)
e|-----------------------------------2--2-2--2-2--2-2------------|
B|-3--3-3--3-3--3-3-3--3-3--3-3--3-3-0--0-0--0-0--0-0------------|
G|-0--0-0--0-0--0-0-2--2-2--2-2--2-2-2--2-2--2-2--2-2------------|
D|-2--2-2--2-2--2-2-0--0-0--0-0--0-0-1--1-1--1-1--1-1-2--2--2--2-|
A|-3--3-3--3-3--3-3-0--0-0--0-0--0-0-2--2-2--2-2--2-2-2--2--2--2-|
E|----------------------------------------------------0--0--0--0-|


[Verse]

(night light hane wo kogasu yabureta hane wo kogasu omoide wo kesanai you ni wasurete shimawanai you ni)
e|-7-7---7-7--7-7-7-7-7-----7-7---7-7--7-7-7-7-7----7-7---7-7--7-7-7-7-7----7-7---7-7-7-7-7-7-7-7-7-7-|
B|-8-8---8-8--8-8-8-8-8-----8-8---8-8--8-8-8-8-8----1010--1010-1010101010---7-7---7-7-7-7-7-7-7-7-7-7-|
G|-9-9---9-9--9-9-9-9-9-----7-7---7-7--7-7-7-7-7----9-9---9-9--9-9-9-9-9----8-8---8-8-8-8-8-8-8-8-8-8-|
D|-9-9---9-9--9-9-9-9-9-----9-9---9-9--9-9-9-9-9----7-7---7-7--7-7-7-7-7----9-9---9-9-7-7-7-7-9-9-9-9-|
A|-7-7---7-7--7-7-7-7-7-----7-7---7-7--7-7-7-7-7----7-7---7-7--7-7-7-7-7----9-9---9-9-9-9-9-9-9-9-9-9-|
E|----------------------------------------------------------------------------------------------------|

(night light hane wo kogasu yabureta hane wo kogasu mou ichido shinjite mitai wasurete shimawanai you ni)
e|-7-7---7-7--7-7-7-7-7-----7-7---7-7--7-7-7-7-7----7-7---7-7--7-7-7-7-7----7-7---7-7-7-7-7-7-7-7-7-7-|
B|-8-8---8-8--8-8-8-8-8-----8-8---8-8--8-8-8-8-8----1010--1010-1010101010---7-7---7-7-7-7-7-7-7-7-7-7-|
G|-9-9---9-9--9-9-9-9-9-----7-7---7-7--7-7-7-7-7----9-9---9-9--9-9-9-9-9----8-8---8-8-8-8-8-8-8-8-8-8-|
D|-9-9---9-9--9-9-9-9-9-----9-9---9-9--9-9-9-9-9----7-7---7-7--7-7-7-7-7----9-9---9-9-7-7-7-7-9-9-9-9-|
A|-7-7---7-7--7-7-7-7-7-----7-7---7-7--7-7-7-7-7----7-7---7-7--7-7-7-7-7----9-9---9-9-9-9-9-9-9-9-9-9-|
E|----------------------------------------------------------------------------------------------------|


[Solo]

e|---------------------------------------------------------------------------------------------------|
B|---------------------------------------------------------------------------------------------------|
G|---------------------------------------------------------------------------------------------------|
D|-9--9--9--9--9--7--7--/9--9--9--9--9--7--7--/9--9--9--9--9--7--9---14--14-/12--12--/9--9--/7--7--7-|
A|---------------------------------------------------------------------------------------------------|
E|---------------------------------------------------------------------------------------------------|

e|-----------------------------------------------------------------------------------------------------|
B|-----------------------------------------------------------------------------------------------12----|
G|-------------9--9--/12---12--12--12--12--12--12--12--11-11-11-9--9--8--8--8--8--8--------------14b16-|
D|/9--9--9--9----------------------------------------------------------------------9--7--7--/9--9------|
A|-----------------------------------------------------------------------------------------------------|
E|-----------------------------------------------------------------------------------------------------|


[Verse]

(wake nara hanasenai kore wa ima mo kawaranai yurush*te hoshii)
e|-7-7---7-7--7-7-7-7-7-----7-7---7-7--7-7-7-7-7----7-7---7-7--7-7-7-7-7----7-7---7-7-7-7-7-7-7-7-7-7-|
B|-8-8---8-8--8-8-8-8-8-----8-8---8-8--8-8-8-8-8----1010--1010-1010101010---7-7---7-7-7-7-7-7-7-7-7-7-|
G|-9-9---9-9--9-9-9-9-9-----7-7---7-7--7-7-7-7-7----9-9---9-9--9-9-9-9-9----8-8---8-8-8-8-8-8-8-8-8-8-|
D|-9-9---9-9--9-9-9-9-9-----9-9---9-9--9-9-9-9-9----7-7---7-7--7-7-7-7-7----9-9---9-9-7-7-7-7-9-9-9-9-|
A|-7-7---7-7--7-7-7-7-7-----7-7---7-7--7-7-7-7-7----7-7---7-7--7-7-7-7-7----9-9---9-9-9-9-9-9-9-9-9-9-|
E|----------------------------------------------------------------------------------------------------|


(kokoro no soko no hako no chiisa na kanjou ga afuredashisou)
e|-7-7---7-7--7-7-7-7-7-----7-7---7-7--7-7-7-7-7----7-7---7-7--7-7-7-7-7----7-7---7-7-7-7-7-7-7-7-7-7-|
B|-8-8---8-8--8-8-8-8-8-----8-8---8-8--8-8-8-8-8----1010--1010-1010101010---7-7---7-7-7-7-7-7-7-7-7-7-|
G|-9-9---9-9--9-9-9-9-9-----7-7---7-7--7-7-7-7-7----9-9---9-9--9-9-9-9-9----8-8---8-8-8-8-8-8-8-8-8-8-|
D|-9-9---9-9--9-9-9-9-9-----9-9---9-9--9-9-9-9-9----7-7---7-7--7-7-7-7-7----9-9---9-9-7-7-7-7-9-9-9-9-|
A|-7-7---7-7--7-7-7-7-7-----7-7---7-7--7-7-7-7-7----7-7---7-7--7-7-7-7-7----9-9---9-9-9-9-9-9-9-9-9-9-|
E|----------------------------------------------------------------------------------------------------|


[Pre-chorus]

(osanaki hi wa yume doko ni mo nakatta )
e|---------------------------------------------------------------|
B|-1--1---1--1--0--0---0--0--------------------------------------|
G|-0--0---0--0--2--2---2--2--------------------------------------|
D|-2--2---2--2--2--2---2--2-2--2-2------------2--2-2-------------|
A|-3--3---3--3--0--0---0--0-2--2-2-----5h7----2--2-2-----5h7-----|
E|--------------------------0--0-0--5h7---7p5-0--0-0--5h7---7p5--|


(genjitsu wa usotsuki sono egao zurui)
e|---------------------------------------------------------------|
B|-1--1---1--1--0--0---0--0--------------------------------------|
G|-0--0---0--0--2--2---2--2--------------------------------------|
D|-2--2---2--2--2--2---2--2-2--2-2------------2--2-2-------------|
A|-3--3---3--3--0--0---0--0-2--2-2-----5h7----2--2-2-----5h7-----|
E|--------------------------0--0-0--5h7---7p5-0--0-0--5h7---7p5--|

(dono michi fukanzen doko ni mo nai nara)
e|---------------------------------------------------------------|
B|-1--1---1--1--0--0---0--0--------------------------------------|
G|-0--0---0--0--2--2---2--2--------------------------------------|
D|-2--2---2--2--2--2---2--2-2--2-2------------2--2-2-------------|
A|-3--3---3--3--0--0---0--0-2--2-2-----5h7----2--2-2-----5h7-----|
E|--------------------------0--0-0--5h7---7p5-0--0-0--5h7---7p5--|


(kimi no te wo hiite)
e|----------------------------------------|
B|-1--1--1--1--1--1--1--1-1-0--0--0--0--0-|
G|-0--0--0--0--0--0--0--0-0-2--2--2--2--2-|
D|-2--2--2--2--2--2--2--2-2-2--2--2--2--2-|
A|-3--3--3--3--3--3--3--3-3-0--0--0--0--0-|
E|----------------------------------------|


[Chorus]
(hoshizora ni taiyou wo uchiageyou)
e|-----------------------------------2--2-2--2-2--2-2-0--0--0--0--0--0--0-0-|
B|-3--3-3--3-3--3-3-3--3-3--3-3--3-3-0--0-0--0-0--0-0-0--0--0--0--0--0--0-0-|
G|-0--0-0--0-0--0-0-2--2-2--2-2--2-2-2--2-2--2-2--2-2-0--0--0--0--0--0--0-0-|
D|-2--2-2--2-2--2-2-0--0-0--0-0--0-0-1--1-1--1-1--1-1-2--2--2--2--2--2--2-2-|
A|-3--3-3--3-3--3-3-0--0-0--0-0--0-0-2--2-2--2-2--2-2-2--2--2--2--2--2--2-2-|
E|----------------------------------------------------0--0--0--0--0--0--0-0-|


(dare yori mo ooki na kagayaki wo)
e|-----------------------------------2--2-2--2-2--2-2-0--0--0--0--0--0--0-0-|
B|-3--3-3--3-3--3-3-3--3-3--3-3--3-3-0--0-0--0-0--0-0-0--0--0--0--0--0--0-0-|
G|-0--0-0--0-0--0-0-2--2-2--2-2--2-2-2--2-2--2-2--2-2-0--0--0--0--0--0--0-0-|
D|-2--2-2--2-2--2-2-0--0-0--0-0--0-0-1--1-1--1-1--1-1-2--2--2--2--2--2--2-2-|
A|-3--3-3--3-3--3-3-0--0-0--0-0--0-0-2--2-2--2-2--2-2-2--2--2--2--2--2--2-2-|
E|----------------------------------------------------0--0--0--0--0--0--0-0-|


(yozora no taiyou ni dekakeyou)
e|-----------------------------------2--2-2--2-2--2-2-0--0--0--0--0--0--0-0-|
B|-3--3-3--3-3--3-3-3--3-3--3-3--3-3-0--0-0--0-0--0-0-0--0--0--0--0--0--0-0-|
G|-0--0-0--0-0--0-0-2--2-2--2-2--2-2-2--2-2--2-2--2-2-0--0--0--0--0--0--0-0-|
D|-2--2-2--2-2--2-2-0--0-0--0-0--0-0-1--1-1--1-1--1-1-2--2--2--2--2--2--2-2-|
A|-3--3-3--3-3--3-3-0--0-0--0-0--0-0-2--2-2--2-2--2-2-2--2--2--2--2--2--2-2-|
E|----------------------------------------------------0--0--0--0--0--0--0-0-|


(PIKAPIKA gin iro no hikousen ni notte)
e|-----------------------------------2--2--2--2--2--2--2--2--2--2--2--2--2--2--2-|
B|-3--3-3--3-3--3-3-3--3-3--3-3--3-3-0--0--0--0--0--0--0--0--0--0--0--0--0--0--0-|
G|-0--0-0--0-0--0-0-2--2-2--2-2--2-2-2--2--2--2--2--2--2--2--2--2--2--2--2--2--2-|
D|-2--2-2--2-2--2-2-0--0-0--0-0--0-0-1--1--1--1--1--1--1--1--1--1--1--1--1--1--1-|
A|-3--3-3--3-3--3-3-0--0-0--0-0--0-0-2--2--2--2--2--2--2--2--2--2--2--2--2--2--2-|
E|-------------------------------------------------------------------------------|


e|------------------0--0-0--0-0--0-0-0--0-0--0-0--0-0-0--0--0--0--0--0--0--0-0-0-|
B|-3--3-3--3-3--3-3-1--1-1--1-1--1-1-0--0-0--0-0--0-0-0--0--0--0--0--0--0--0-0-0-|
G|-0--0-0--0-0--0-0-2--2-2--2-2--2-2-0--0-0--0-0--0-0-0--0--0--0--0--0--0--0-0-0-|
D|-2--2-2--2-2--2-2-2--2-2--2-2--2-2-2--2-2--2-2--2-2-2--2--2--2--2--2--2--2-2-2-|
A|-3--3-3--3-3--3-3-0--0-0--0-0--0-0-2--2-2--2-2--2-2-2--2--2--2--2--2--2--2-2-2-|
E|-----------------------------------0--0-0--0-0--0-0-0--0--0--0--0--0--0--0-0-0-|


(notte)
e|------------------0--0-0--0-0--0-0-0--0-0--0-0--0-0-0--0--0--0--0--0--0--0-0-0-|
B|-3--3-3--3-3--3-3-1--1-1--1-1--1-1-0--0-0--0-0--0-0-0--0--0--0--0--0--0--0-0-0-|
G|-0--0-0--0-0--0-0-2--2-2--2-2--2-2-0--0-0--0-0--0-0-0--0--0--0--0--0--0--0-0-0-|
D|-2--2-2--2-2--2-2-2--2-2--2-2--2-2-2--2-2--2-2--2-2-2--2--2--2--2--2--2--2-2-2-|
A|-3--3-3--3-3--3-3-0--0-0--0-0--0-0-2--2-2--2-2--2-2-2--2--2--2--2--2--2--2-2-2-|
E|-----------------------------------0--0-0--0-0--0-0-0--0--0--0--0--0--0--0-0-0-|


(notte, notte)
e|------------------0--0-0--0-0--0-0-0--0-0--0-0--0-0-0--0--0--0--0--0--0--0-0-0-|
B|-3--3-3--3-3--3-3-1--1-1--1-1--1-1-0--0-0--0-0--0-0-0--0--0--0--0--0--0--0-0-0-|
G|-0--0-0--0-0--0-0-2--2-2--2-2--2-2-0--0-0--0-0--0-0-0--0--0--0--0--0--0--0-0-0-|
D|-2--2-2--2-2--2-2-2--2-2--2-2--2-2-2--2-2--2-2--2-2-2--2--2--2--2--2--2--2-2-2-|
A|-3--3-3--3-3--3-3-0--0-0--0-0--0-0-2--2-2--2-2--2-2-2--2--2--2--2--2--2--2-2-2-|
E|-----------------------------------0--0-0--0-0--0-0-0--0--0--0--0--0--0--0-0-0-|


e|------------------0--0-0--0-0--0-0-0-0-----|
B|-3--3-3--3-3--3-3-1--1-1--1-1--1-1-1-1-----|
G|-0--0-0--0-0--0-0-2--2-2--2-2--2-2-2-2-----|
D|-2--2-2--2-2--2-2-2--2-2--2-2--2-2-2-2-2-2-|
A|-3--3-3--3-3--3-3-0--0-0--0-0--0-0-0-0-2-0-|
E|---------------------------------------0-0-|            
Submit corrections

↑ Back to top | Tablatures and chords for acoustic guitar and electric guitar, ukulele, drums are parodies/interpretations of the original songs. You may use it for private study, scholarship, research or language learning purposes only