» » »

Dead Fish - A Cura Tabs

Artists:  A B C D E F G H I J K L M N O P Q R S T U V W X Y Z # 

A Cura Tabs

(ver. 1) Click to play this song!
Dead Fish
 Rating:
4/5 (4 votes)
                

Riff 1
E|-----------------------------------------------------------|
B|-----------------------------------------------------------|
G|-----------------------------------------------------------|
D|----7-9-10---7-9-10---7-9-10-10----------------------------|
A|----7-9-10---7-9-10---7-9-10-10----------------------------|
E|----5-7-8----5-7-8----5-7-8--8-----------------------------|

Riff 2
E|-----------------------------------------------------------|
B|-----------------------------------------------------------|
G|-----------------------------------------------------------|
D|-----------------------------------------------------------|
A|--------------------------*-*-*----------------------------|
E|----5-7-8-8-8-8-5-7-8-8-8-5-7-8-8-8-8----------------------|
              (PM)
*do faster
Riff 3
E|-----------------------------------------------------------|
B|----------------------*--*---------------------------------|
G|------7--5------7--5--4--5------7--5------7----------------|
D|---5--7--5---5?-7--5--4--5---5--7--5---5--7----------------|
A|---5--5--3---5--5--3--2--3---5--5--3---5--5----------------|
E|---3---------3---------------3---------3-------------------|
play 6x each  - *play 3x

Riff 4
E|-------------|
B|-------------|
G|----------*--|
D|----------5?-|
A|-------------|
E|----5-7-8----|
(PM) except *

Riff 5 (guitar 2)
E|--*---*--*----*---------------------------------------------|
B|--8--10--12--13?---13/12--12/10-10/8--8---------------------|
G|------------------------------------------------------------|
D|------------------------------------------------------------|
A|------------------------------------------------------------|
E|------------------------------------------------------------|
*Play many times and fast

Riff 6
E|----6x-3x-3x---6x-3x-3x?-6x-3x-3x---12x---------------------|
B|------------------------------------------------------------|
G|----5--4--5?---5--4--5?--5--4--5----5-----------------------|
D|----5--4--5----5--4--5---5--4--5----5---5-------------------|
A|----3--2--3?---3--2--3---3--2--3----3---5-------------------|
E|----------------------------------------3-ending------------|
            
Submit corrections

↑ Back to top | Tablatures and chords for acoustic guitar and electric guitar, ukulele, drums are parodies/interpretations of the original songs. You may use it for private study, scholarship, research or language learning purposes only