» » »

Dead Can Dance - In Power We Entrust The Love Advocated Tabs

Artists:  A B C D E F G H I J K L M N O P Q R S T U V W X Y Z # 

In Power We Entrust The Love Advocated Tabs

(ver. 1) Click to play this song!
Dead Can Dance
 Rating:
4/5 (4 votes)

 In Power We Entrust The Love Advocated lessons Tabs too difficult? Try these video lessons and learn fast
 
                -------------------------------------------------------------------------------
-------------------------------------------------------------------------------


Tuning: standard

Introduction:

e|--3--1--0--------|
B|-----------0--1--|
G|--------------2--|
D|--------------2--|
A|--------------0--|
E|-----------------|


Am      Em           G                       D                       Am
Sail on silver wings through this storm what fortune love may bring,

           Em        G              D                       Am         Em
back to my arms again the love of a former golden age.

     G                     D                           Am
I am disabled by fears concerning which course to take,

             Em                G          D                   Am
For now that wheels are turning I find my faith deserting me.


INTERLUDE:

e|-----------------------------------|
B|--1--0---(alternate sporadically)--|
G|-----------------------------------|
D|-----------------------------------|
A|-----------------------------------|
E|-----------------------------------|

Am            Em                       G                                         
This night is filled with the cries of dispossessed children 

   D                  Am 
in search of paradise

          Em           G                 D                   Am       Em
A sign of unresolved ambition drives the pin wheel on and on.

       G                  D                            Am          
I am disabled by fears concerning which course to take,

                  Em             G             D                  Am
When memory bears witness to the innocents consumed in dying rage.


INTERLUDE

Am           Em                Am
The way lies through our love,

                G                      Am
There can be no other means to the end,

                  Em                        Am          
or the keys to my heart you will never find.

Am
You will never find.


SOLO: 

e|-8-7-5---5-------7-5-------------7-5-------------5-------5-------| play twice
B|-------8---8-7-5-----8-7-8-7-5-------8-7-8-7-5-7---8-7-8---8-7-5-| 
G|-------------------------------7---------------------------------|
D|-----------------------------------------------------------------|
A|-----------------------------------------------------------------|
E|-----------------------------------------------------------------|


OUTRO

e|-3--2--3--2--5--3--2--3-|  
B|------------------------| repeat until fade out 
G|------------------------|
D|------------------------|
A|------------------------|
E|------------------------|


If any error should be noticed, or any suggestion thought of for improvement, 
please do not hesitate to leave a comment!
            
Submit corrections


        In Power We Entrust The Love Advocated lessons Hard to play? Try these video lessons and learn fast In Power We Entrust The Love Advocated lessons
        
↑ Back to top | Tablatures and chords for acoustic guitar and electric guitar, ukulele, drums are parodies/interpretations of the original songs. You may use it for private study, scholarship, research or language learning purposes only