Home » D » Deadboy And The Elephantmen »

Deadboy And The Elephantmen - Stop I'm Already Dead Tabs

Artists:  A B C D E F G H I J K L M N O P Q R S T U V W X Y Z # 

Stop I'm Already Dead Tabs

(ver. 1) Click to play this song!
Deadboy And The Elephantmen
eb----------------------------------|
bb----------------------------------|
gb----------------------------------| 
db-7-7-7-7-7-7-7-7-7-7-7-7-7-7-7-7--|
ab-7-7-7-7-7-7-7-7-7-7-7-7-7-7-7-7--|
Eb-5-5-5-5-5-5-5-5-5-5-5-5-5-5-5-5--|
pm . . . . . . . . . . . . . . . .  

eb--------------------------------------------------|
bb--------------------------------------------------|
gb--------------------------------------------------|
db-12-12-12-12-12-12-12-12-12-12-12-12-12-12-12-12--| (intro)
ab-12-12-12-12-12-12-12-12-12-12-12-12-12-12-12-12--|
Eb-10-10-10-10-10-10-10-10-10-10-10-10-10-10-10-10--|
pm .  .  .  .  .  .  .  .  .  .  .  .  .  .  .  .

eb----------------------------------|
bb----------------------------------|
gb----------------------------------|(riff 1)
db-7-7-7-7-7-7-7-7-7-7-7-7-7-7-7-7--|
ab-7-7-7-7-7-7-7-7-7-7-7-7-7-7-7-7--| 
Eb-5-5-5-5-5-5-5-5-5-5-5-5-5-5-5-5--| 
pm . . . . . . . . . . . . . . . . 

eb---------------------------------------------------|
bb---------------------------------------------------|
gb---------------------------------------------------|
db-12-12-12-12-12-12-12-12-12-12-12-12-12-12--12-12--|
ab-12-12-12-12-12-12-12-12-12-12-12-12-12-12--12-12--|
Eb-10-10-10-10-10-10-10-10-10-10-10-10-10-10--10-10--| 
pm .  .  .  .  .  .  .  .  .  .  .  .  .  . 

eb----------------------------------|
bb----------------------------------|
gb----------------------------------|
db-7-7-7-7-7-7-7-7-7-7-7-7-7-7-7-7--|
ab-7-7-7-7-7-7-7-7-7-7-7-7-7-7-7-7--|
Eb-5-5-5-5-5-5-5-5-5-5-5-5-5-5-5-5--| 

eb--------------------------------------------------
bb--------------------------------------------------
gb-------------------------------------------------- (riff 2)
db-12-12-12-12-12-12-12-12-12-12-12-12-12-12-12-12--
ab-12-12-12-12-12-12-12-12-12-12-12-12-12-12-12-12--
Eb-10-10-10-10-10-10-10-10-10-10-10-10-10-10-10-10-- 

eb-----------------------|
bb-----------------------|
gb-----------------------| (riff 3)
db-----------------------|
ab-15-15-15-14-14-12/-7--| 
Eb-13-13-13-12-12-10/-5--|  

eb--------------|
bb--------------|
gb--------------|                          
db-3----5----7--| (riff 4)
ab-3----5----7--|
Eb-1----3----5--|

eb------------------------------------------------|
bb------------------------------------------------|
gb------------------------------------------------|
db-77---77---77---77---1212---1212---1212---1212--| (riff 5)
ab-77---77---77---77---1212---1212---1212---1212--|
Eb-55---55---55---55---1010---1010---1010---1010--|
            
Submit corrections

↑ Back to top | Tablatures and chords for acoustic guitar and electric guitar, ukulele, drums are parodies/interpretations of the original songs. You may use it for private study, scholarship, research or language learning purposes only