Home » D » Dc Talk »

Dc Talk - What If I Stumble? Tabs

Artists:  A B C D E F G H I J K L M N O P Q R S T U V W X Y Z # 

What If I Stumble? Tabs

(ver. 2) Click to play this song!
Dc Talk
what if i stumble by dc talk

great song, fuuuun to play once you get the hang of it! i suggest listening to the live version to get the strumming, because the recorded version is different. also, try listening to the song while reading the tab, it helps :] good luck!

intro/verse/bridge: Dm, C, G

      Dm    C     G
E-----1-----0-----3-----
B-----3-----1-----3-----
G-----2-----0-----0-----
D-----0-----2-----0-----
A-----------3-----2-----
E-----------------3-----

then the little riff:

      Dm	                           C                 G
E-----1-----0-----1-----3-----1-----0-----1-----0-----3-----
B-----3-----3-----3-----3-----3-----1-----1-----1-----3-----
G-----2-----2-----2-----2-----2-----0-----0-----0-----0-----
D-----0-----0-----0-----0-----0-----2-----2-----2-----0-----
A-----------------------------------3-----3-----3-----2-----
E-----------------------------------------------------3-----

prechorus: [play twice]

      Bm    F     C
E-----1-----1-----0-----
B-----3-----1-----1-----
G-----3-----2-----0-----
D-----3-----3-----2-----
A-----------0-----3-----
E-----------------------

chorus: [play twice]

      C     G     E     Am    F
E-----0-----3-----0-----0-----1-----
B-----1-----3-----0-----1-----1-----
G-----0-----0-----1-----2-----0-----
D-----2-----0-----2-----2-----2-----
A-----3-----2-----2-----------3-----
E-----------3-----------------------

thats about it...ill write down the some of the lyrics with the chords if it helps:


Verse:

Dm                              C                G
is this one for the people, is this one for the Lord?

Dm                           C             G
or do i simply serenade the things i must afford? [...and so on]

Prechorus:

Bm        F               C
i see the trust in their eyes [...etc]

Chorus:

C                  G          E
what if i stumble? what if i fall?

A                                   F
what if i lose my step and i make fools of us all? [...one more time]



and the rest is along those lines :] i highly suggest learning the live version strumming, it sounds a lot better, and its more fun to play :] any questions, leave a comment with your email address and ill answer it :D and if this tab helps, PLEASE rate it, it makes me happy :P hehe thanks!
            
Submit corrections

↑ Back to top | Tablatures and chords for acoustic guitar and electric guitar, ukulele, drums are parodies/interpretations of the original songs. You may use it for private study, scholarship, research or language learning purposes only