» » »

Day 6 - Stop The Rain Chords

Artists:  A B C D E F G H I J K L M N O P Q R S T U V W X Y Z # 

Stop The Rain Chords

(ver. 1) Click to play this song!
Day 6
 Rating:
4.1/5 (8 votes)

 Stop The Rain lessons Tabs too difficult? Try these video lessons and learn fast
 
                [Intro]
rhythm:

e|----------------------------------------------------------|
B|----------------------------------------------------------|
G|----------------------------------------------------------|
D|-0-000-000-000-0-000-000-000-2-222-222-222-2-222-222-222--|
A|-0-000-000-000-0-000-000-000-2-222-222-222-2-222-222-222--|
E|-X-XXX-XXX-XXX-X-XXX-XXX-XXX-0-000-000-000-0-000-000-000--|

e|----------------------------------------------------------|
B|----------------------------------------------------------|
G|----------------------------------------------------------|
D|-0-000-000-000-0-000-000-000-2-222-222-222-2-222-222-222--|
A|-0-000-000-000-0-000-000-000-2-222-222-222-2-222-222-222--|
E|-X-XXX-XXX-XXX-X-XXX-XXX-XXX-0-000-000-000-0-000-000-000--|

e|----------------------------------------------------------|
B|----------------------------------------------------------|
G|----------------------------------------------------------|
D|-0-000-000-000-0-000-000-000-2-222-222-222-2-222-222-222--|
A|-0-000-000-000-0-000-000-000-2-222-222-222-2-222-222-222--|
E|-X-XXX-XXX-XXX-X-XXX-XXX-XXX-0-000-000-000-0-000-000-000--|

e|----------------------------------------------------------|
B|----------------------------------------------------------|
G|----------------------------------------------------------|
D|-0-000-000-000-0-000-000-000-2-222-222-222-2-222-222-222--|
A|-0-000-000-000-0-000-000-000-2-222-222-222-2-222-222-222--|
E|-X-XXX-XXX-XXX-X-XXX-XXX-XXX-0-000-000-000-0-000-000-000--|


lead:
e|-----------------------------------------------------------|
B|-----------------------------------------------------------|
G|-9-9-------------------------9-9---------------------------|
D|-----99-99--7-7-7-7-77-77-99-----99-99-6-6-6-6-66-66-7-99--|
A|-7-7-------------------------7-7---------------------------|
E|-----77-77--5-5-5-5-55-55-77-----77-77-4-4-4-4-44-44-5-77--| 

e|-----------------------------------------------------------|
B|-----------------------------------------------------------|
G|-9-9-------------------------9-9---------------------------|
D|-----99-99--7-7-7-7-77-77-99-----99-99-6-6-6-6-66-66-7-99--|
A|-7-7-------------------------7-7---------------------------|
E|-----77-77--5-5-5-5-55-55-77-----77-77-4-4-4-4-44-44-5-77--|

e|-----------------------------------------------------------|
B|-----------------------------------------------------------|
G|-9-9-------------------------9-9---------------------------|
D|-----99-99--7-7-7-7-77-77-99-----99-99-6-6-6-6-66-66-7-99--|
A|-7-7-------------------------7-7---------------------------|
E|-----77-77--5-5-5-5-55-55-77-----77-77-4-4-4-4-44-44-5-77--| 

e|-----------------------------------------------------------|
B|-----------------------------------------------------------|
G|-9-9-------------------------9-9---------------------------|
D|-----99-99--7-7-7-7-77-77-99-----99-99-6-6-6-6-66-66-7-99--|
A|-7-7-------------------------7-7---------------------------|
E|-----77-77--5-5-5-5-55-55-77-----77-77-4-4-4-4-44-44-5-77--|

e|-----------------------9-9---------------------------------9-9-----------|
B|---------------------------12-12-10----------------------------12-12-10--|
G|-------------9-9-11-11---------------------------9-9-11-11---------------|
D|-11-11-12-12-------------------------11-11-12-12-------------------------|
A|-------------------------------------------------------------------------|
E|-------------------------------------------------------------------------|

e|---------------------9-9------------------------------9-9----------------|
B|-----------------9-9-----12-12-9------------------9-9-----12-12-9-9------|
G|-------9-9-11-11------------------------9-9-11-11-------------------11---|
D|-12-12----------------------------12-12----------------------------------|
A|-------------------------------------------------------------------------|
E|-------------------------------------------------------------------------|

e|-----------------------9-9---------------------------------9-9-----------|
B|---------------------------12-12-10----------------------------12-12-10--|
G|-------------9-9-11-11---------------------------9-9-11-11---------------|
D|-11-11-12-12-------------------------11-11-12-12-------------------------|
A|-------------------------------------------------------------------------|
E|-------------------------------------------------------------------------|

e|---------------------9-9------------------------------9-9----------------|
B|-----------------9-9-----12-12-9------------------9-9-----12-12-9-9------|
G|-------9-9-11-11------------------------9-9-11-11-------------------11---|
D|-12-12----------------------------12-12----------------------------------|
A|-------------------------------------------------------------------------|
E|-------------------------------------------------------------------------|

[Verse]

e|-x--|
B|-x--|
G|-9--|
D|-x--|
A|-x--|
E|-x--| strum this repeatedly along with the rhythm of the song.


[Pre-Chorus]
lead
e|------0--------1----0------0-------------------|
B|----0---0------2---------0---0-----------------|
G|-1--------2-1--2--4----1-------2-1-------------|
D|-2---------------------2------------222222222--|
A|-2---------------------2------------222222222--|
E|------------------------------------000000000--|
                                      PMPMPMPMPM

[Chorus]
rhythm:
e|----------------------------------------------------------------------------|
B|----------------------------------------------------------------------------|
G|----------------------------------------------------------------------------|
D|-0-000-000-000-2-222-222-222------------------------------------------------|
A|-0-000-000-000-2-222-222-222-4-444-444-444-7-777-777-777--------------------|
E|-X-XXX-XXX-XXX-0-000-000-000-2-222-222-222-5-555-555-555--------------------|

e|----------------------------------------------------------------------------|
B|----------------------------------------------------------------------------|
G|----------------------------------------------------------------------------|
D|-0-000-000-000-2-222-222-222---------------2-222-222-222--------------------|
A|-0-000-000-000-2-222-222-222-4-444-444-444-2-222-222-222--------------------|
E|-X-XXX-XXX-XXX-0-000-000-000-2-222-222-222-0-000-000-000--------------------|

e|----------------------------------------------------------------------------|
B|----------------------------------------------------------------------------|
G|----------------------------------------------------------------------------|
D|-0-000-000-000-2-222-222-222---------------9-9-0-000-000-000-2-222-222-222--|
A|-0-000-000-000-2-222-222-222-4-44-6-6-7-77-7-7-0-000-000-000-2-222-222-222--|
E|-X-XXX-XXX-XXX-0-000-000-000-2-22-4-4-5-55-----X-XXX-XXX-XXX-0-000-000-000--|

e|----------------------------------------------------------|
B|----------------------------------------------------------|
G|----------------------------------------------------------|
D|-0-000-000-000-0-000-000-000-2-222-222-222-2-222-222-222--|
A|-0-000-000-000-0-000-000-000-2-222-222-222-2-222-222-222--|
E|-X-XXX-XXX-XXX-X-XXX-XXX-XXX-0-000-000-000-0-000-000-000--|
 
lead:
e|---------------------------------------------------------------------------------------------------|
B|-10-101010-101010-101010-10-101010-101010-101010-10-101010-101010--12-121212-1414-141414-17-17-17--|
G|---------------------------------------------------------------------------------------------------|
D|-7--7-7-7--7-7-7--7-7-7--7--7-7-7--7-7-7--7-7-7--7--7-7-7--7-7-7---9--9-9-9--1111-111111-14-14-14--|
A|---------------------------------------------------------------------------------------------------|
E|---------------------------------------------------------------------------------------------------|

e|----------------------------------------|
B|-10-101010-101010-101010-9-999-999-999--|
G|----------------------------------------|
D|-7--7-7-7--7-7-7--7-7-7--6-666-666-666--|
A|----------------------------------------|
E|----------------------------------------|

e|-----------------------9-9---------------------------------9-9-----------|
B|---------------------------12-12-10----------------------------12-12-10--|
G|-------------9-9-11-11---------------------------9-9-11-11---------------|
D|-11-11-12-12-------------------------11-11-12-12-------------------------|
A|-------------------------------------------------------------------------|
E|-------------------------------------------------------------------------|

e|---------------------9-9------------------------------9-9----------------|
B|-----------------9-9-----12-12-9------------------9-9-----12-12-9-9------|
G|-------9-9-11-11------------------------9-9-11-11-------------------11---|
D|-12-12----------------------------12-12----------------------------------|
A|-------------------------------------------------------------------------|
E|-------------------------------------------------------------------------|

e|-----------------------9-9---------------------------------9-9-----------|
B|---------------------------12-12-10----------------------------12-12-10--|
G|-------------9-9-11-11---------------------------9-9-11-11---------------|
D|-11-11-12-12-------------------------11-11-12-12-------------------------|
A|-------------------------------------------------------------------------|
E|-------------------------------------------------------------------------|

e|---------------------9-9------------------------------9-9----------------|
B|-----------------9-9-----12-12-9------------------9-9-----12-12-9-9------|
G|-------9-9-11-11------------------------9-9-11-11-------------------11---|
D|-12-12----------------------------12-12----------------------------------|
A|-------------------------------------------------------------------------|
E|-------------------------------------------------------------------------|


[Solo]

e|----------------------------------------------------------------------|
B|----------9-10~-\----------------9-10\--------------------------------|
G|-/9-9~-9~---------/9-9-9-9-------------/9-7-6-7-6---------------------|
D|---------------------------11-11------------------7\-/7-7-7h9-7\6-7\--|
A|----------------------------------------------------------------------|
E|----------------------------------------------------------------------|

e|---------------------------------------------------------------------|
B|---------------------------------------------------------------------|
G|-/9-----/11-----/13-11-13-13h14p13-11-13-13h14p13-11-13-11-13b(^14)--|
D|----11\-----\11------------------------------------------------------|
A|---------------------------------------------------------------------|
E|---------------------------------------------------------------------|

e|---------------------------------------------------------------------------|
B|---------------------------------------------------------------------------|
G|-7-777-77/9-999/11-111111-1111/13-131313--/9-9999\7-777\6666\444\222-22-1--|
D|---------------------------------------------------------------------------|
A|-5-555-55/7-777/9--9-9-9--9-9-/11-111111-----------------------------------|
E|---------------------------------------------------------------------------|

e|---------------------------------18(^19)18b(^19)--|
B|-18b(^19)-(18)-17---------------------------------|
G|------------------18-16----18-16------------------|
D|------------------------16------------------------|
A|--------------------------------------------------|
E|--------------------------------------------------|


[Bridge]
rhythm:
e|--------------------------------------------------------------------|
B|--------------------------------------------------------------------|
G|-4--4-6--6-7--7-7--6-4--4-6--6-7--7-7--6-4--------------------------|
D|-4--4-6--6-7--7-7--6-4--4-6--6-7--7-7--6-4--------------------------|
A|-2--2-4--4-5--5-5--4-2--2-4--4-5--5-5--4-2--------------------------|
E|--------------------------------------------------------------------|

e|--------------------------------------------------------------------|
B|--------------------------------------------------------------------|
G|-4-6-7--------------------------------------------------------------|
D|-4-6-7-7-5-555-555-555-555-555-555-55-7-777-777-777-777-777-777-77--|
A|-2-4-5-7-5-555-555-555-555-555-555-55-7-777-777-777-777-777-777-77--|
E|-------5-3-333-333-333-333-333-333-33-5-555-555-555-555-555-555-55--|


[Pre-Chorus]
lead:
e|------0--------1----0------0-------------------|
B|----0---0------2---------0---0-----------------|
G|-1--------2-1--2--4----1-------2-1-------------|
D|-2---------------------2------------222222222--|
A|-2---------------------2------------222222222--|
E|------------------------------------000000000--|
                                      PMPMPMPMPM


[Chorus]
rhythm:
e|----------------------------------------------------------------------------|
B|----------------------------------------------------------------------------|
G|----------------------------------------------------------------------------|
D|-0-000-000-000-2-222-222-222------------------------------------------------|
A|-0-000-000-000-2-222-222-222-4-444-444-444-7-777-777-777--------------------|
E|-X-XXX-XXX-XXX-0-000-000-000-2-222-222-222-5-555-555-555--------------------|

e|----------------------------------------------------------------------------|
B|----------------------------------------------------------------------------|
G|----------------------------------------------------------------------------|
D|-0-000-000-000-2-222-222-222---------------2-222-222-222--------------------|
A|-0-000-000-000-2-222-222-222-4-444-444-444-2-222-222-222--------------------|
E|-X-XXX-XXX-XXX-0-000-000-000-2-222-222-222-0-000-000-000--------------------|

e|----------------------------------------------------------------------------|
B|----------------------------------------------------------------------------|
G|----------------------------------------------------------------------------|
D|-0-000-000-000-2-222-222-222---------------9-9-0-000-000-000-2-222-222-222--|
A|-0-000-000-000-2-222-222-222-4-44-6-6-7-77-7-7-0-000-000-000-2-222-222-222--|
E|-X-XXX-XXX-XXX-0-000-000-000-2-22-4-4-5-55-----X-XXX-XXX-XXX-0-000-000-000--|

e|----------------------------------------------------------|
B|----------------------------------------------------------|
G|----------------------------------------------------------|
D|-0-000-000-000-0-000-000-000-0-000-000-000-0-000-000-000--|
A|-0-000-000-000-0-000-000-000-0-000-000-000-0-000-000-000--|
E|-X-XXX-XXX-XXX-X-XXX-XXX-XXX-X-XXX-XXX-XXX-X-XXX-XXX-XXX--|

e|----------------------------------------------------------|
B|----------------------------------------------------------|
G|----------------------------------------------------------|
D|-0-000-000-000-0-000-000-000-0-000-000-000-0-000-000-000--|
A|-0-000-000-000-0-000-000-000-0-000-000-000-0-000-000-000--|
E|-X-XXX-XXX-XXX-X-XXX-XXX-XXX-X-XXX-XXX-XXX-X-XXX-XXX-XXX--|


lead:
e|---------------------------------------------------------------------------------------------------|
B|-10-101010-101010-101010-10-101010-101010-101010-10-101010-101010--12-121212-1414-141414-17-17-17--|
G|---------------------------------------------------------------------------------------------------|
D|-7--7-7-7--7-7-7--7-7-7--7--7-7-7--7-7-7--7-7-7--7--7-7-7--7-7-7---9--9-9-9--1111-111111-14-14-14--|
A|---------------------------------------------------------------------------------------------------|
E|---------------------------------------------------------------------------------------------------|

e|----------------------------------------|
B|-10-101010-101010-101010-9-999-999-999--|
G|----------------------------------------|
D|-7--7-7-7--7-7-7--7-7-7--6-666-666-666--|
A|----------------------------------------|
E|----------------------------------------|

e|----------------------------------------------------------|
B|----------------------------------------------------------|
G|-9-9-------------------------9-9--------------------------|
D|-----99-99--7-7-7-7-77-77-99-----99-99--7-7-7-7-77-77-99--|
A|-7-7-------------------------7-7--------------------------|
E|-----77-77--5-5-5-5-55-55-77-----77-77--5-5-5-5-55-55-77--| 

e|----------------------------------------------------------|
B|----------------------------------------------------------|
G|-9-9-------------------------9-9--------------------------|
D|-----99-99--7-7-7-7-77-77-99-----99-99--7-7-7-7-77-77-99--|
A|-7-7-------------------------7-7--------------------------|
E|-----77-77--5-5-5-5-55-55-77-----77-77--5-5-5-5-55-55-77--|

            
Submit corrections


        Stop The Rain lessons Hard to play? Try these video lessons and learn fast Stop The Rain lessons
        
↑ Back to top | Tablatures and chords for acoustic guitar and electric guitar, ukulele, drums are parodies/interpretations of the original songs. You may use it for private study, scholarship, research or language learning purposes only