Home » D » Dawes »

Dawes - How Far Weve Come Tabs

Artists:  A B C D E F G H I J K L M N O P Q R S T U V W X Y Z # 

How Far Weve Come Tabs

(ver. 3) Click to play this song!
Dawes
Song Structure (over and over):   E  A  B7  E 


Intro/Verse I

e|--4--2--0---0------4-5-4---5---4---2---0-h2s---4----------------------|
B|-----------h2b0-------------------------------------------------------|
G|--4--4--4---4------4-4-4---6---4---2---2-h2s---4----------------------|
E|----------------------------------------------------------------------|
B|-----------------------------------2---2------------------------------|
E|--0--0--0---0------0-0-0---0--------------0----0----------------------|

e|--4--2--0---0------4-5-4---5---4---2---0----0-------------------------|
B|-----------h2b0-----------------------------0-------------------------|
G|--4--4--4---4------4-4-4---6---4---2---2----1-------------------------|
E|--------------------------------------------2-------------------------|
B|-----------------------------------2---2----2-------------------------|
E|--0--0--0---0------0-0-0---0----------------0-------------------------|

Verse II

e|--7---7--7--5--4---5---4---2---0--s4-----------------|
B|--5---5--5--5--5-5-----------------------------------|
G|--4--h6--4--4--4---6---4---2---2--s4-----------------|
E|-----------------------------------------------------|
B|---------------------------2---2---------------------|
E|--0---0--0--0--0---0---0-----------------------------|

e|--7---7--7--5--4---5---4---2---0--0------------------|
B|--5---5--5--5--5-5----------------0------------------|
G|--4--h6--4--4--4---6---4---2---2--1------------------|
E|----------------------------------2------------------|
B|--------------------------2----2--2------------------|
E|--0---0--0--0--0---0---0----------0------------------|


INTERLUDE

                                2x
e|-12-11--9--9--9---9--9---9---------9--------------------|
B|--9--9--9-12--10--9--9---9---------10--9---7--5--9------|
G|--9--9--9--9--9---9--11--9---------9---9---8--6--9------|
E|-----------------------------------11--9---9--7--9------|
B|-------------------------------------------9--7---------|
E|--0--0--0--0--0---0--0---0---------0---0---7--5--0------|

                                2x
e|-12-11--9--9--9---9--9---9---------9--------------4-----|
B|--9--9--9-12--10--9--9---9---------10--9---7--5---5-----|
G|--9--9--9--9--9---9--11--9---------9---9---8--6---4-----|
E|-----------------------------------11--9---9--7---6-----|
B|-------------------------------------------9--7---------|
E|--0--0--0--0--0---0--0---0---------0---0---7--5---0-----|


VERSE I

Stars, please shine the way for me
Show the one that I have followed
To see how far I've come

Sun that slowly sets on me
Be the same to rise tomorrow
To see how far I've come

VERSE II

These are the days we swore upon
So barman keep the TV on
To see how far we've come

Peak to peak and shore to shore
This is all love was ever for
Is to see how far we've come

VERSE I

California's greenest parts
I reach out for my brother
To see how far he's come

For the girl that came to break my heart
I call on her new lover
To see how far she's come

VERSE II

Why your mother keeps a record of her child's height
Why we all are here tonight
Is to see how far we've come

The only point of clocks and maps
The only point of looking back
Is to see how far we've come

VERSE I

Ooh, ooh, oh, oh, oh, ooh, ooh
Ooh, ooh, ooh, ooh, oh, oh
Ooh, ooh, oh, oh, oh, ooh, ooh
Ooh, ooh, ooh, ooh, oh, oh

INTERLUDE

VERSE I

Stars, please shine the way for me
Show the one that I have followed
To see how far I've come

And sun that slowly sets on me
Be the same to rise tomorrow
To see how far I've come
            
Submit corrections

↑ Back to top | Tablatures and chords for acoustic guitar and electric guitar, ukulele, drums are parodies/interpretations of the original songs. You may use it for private study, scholarship, research or language learning purposes only