» » »

David Lee Murphy - Party Crowd Tabs

Artists:  A B C D E F G H I J K L M N O P Q R S T U V W X Y Z # 

Party Crowd Tabs

(ver. 1) Click to play this song!
David Lee Murphy
 Rating:
4/5 (4 votes)

 Party Crowd lessons Tabs too difficult? Try these video lessons and learn fast
 
                "Key:

h: Hammer	p:  Pull Off	/:  Slide	b: Bend

br: Bend and release	~~~:  Vibrato	x: Muted string

bh: Bend and Hold	rb:  Release Bend
*******************************************************************

She couldnt Keep from Cryin         When She told me goodbye
E-3--------------------------------------0-------------------------
B-3--------------------------------------1-------------------------
G-0-----------------------------0--------2-------------------------
D-0-------------------------0h2----------2-------------------------
A-2--------------------------------------0-------------------------
E-3----------------------------------------------------------------

She knew lord it was breaking her heart
E-0------------------0---------------------------------------------
B-1------------------1---------------------------------------------
G-0------------------2---------------------------------------------
D-2------------------2---------------------------------------------
A-3------------------0---------------------------------------------
E------------------------------------------------------------------

 But she was breaking mine
E-3----------------------------------------------------------------
B-3----------------------------------------------------------------
G-0----------------------------0-----------------------------------
D-0------------------------0h2---2p0---0---------------------------
A-2----------------------------------3-----------------------------
E-3----------------------------------------------------------------

 ...Lookin for a party crowd
E------------------------------------------------------------------
B------------------------------------------------------------------
G------------------------------------------------------------------
D--------------------------0---------------------------------------
A----------------------------3br0~~--------------------------------
E------------------------------------------------------------------

SOLO:

E------------------------------------------------------------------
B--------------------------------------------10--------------------
G-----------------------------------------7--9br-7-----------------
D---2br-0-----2-----------------5---5-7/9----------9br-7-----------
A---------2h3---------------5-7---7----------------------7h9-------
E---------------5br-3-3-5/7----------------------------------------
                

         
                    At approx. 2:10           
E----------------   ----------------------    
B----------------   -13-------------------    
G----------------   ----12br-10-----------    
D----------------   ------------12br-10---    
A-9p7s5----------   ----------------------    
E-------7b-5~~---   ----------------------    

 At Approx 2:13
E------------------------------------------------------------------
B------------------------------------------------------------------
G--9br-7-----------------------------------------------------------
D--------9br-7\5---------------------------------------------------
A----------------7p5-----------------------------------------------
E--------------------5br-3-----------------------------------------

"            
Submit corrections


        Party Crowd lessons Hard to play? Try these video lessons and learn fast Party Crowd lessons
        
↑ Back to top | Tablatures and chords for acoustic guitar and electric guitar, ukulele, drums are parodies/interpretations of the original songs. You may use it for private study, scholarship, research or language learning purposes only