» » »

David Guetta - 2U Tabs

Artists:  A B C D E F G H I J K L M N O P Q R S T U V W X Y Z # 

2U Tabs

(ver. 1) Click to play this song!
David Guetta
 Rating:
4.2/5 (30 votes)

 2U  lessons Tabs too difficult? Try these video lessons and learn fast
 
                [Intro]
e|--0--2--3---------0----|--5----3----2----|--5----3----5/7----3----|
B|-------------3----3----|------------3----|--3----3-----------0----|
G|-------------0----0----|--5----4----2----|-------------------0----|
D|-----------------------|------------0----|------------------------|
A|-------------2----3----|--0--------------|--2---------------------|
E|--------3--------------|-----------------|-------------------0----|

(not realitve)   
e|--12----11----|-------2----|
B|--------------|--1---------|
G|--13----11----|--0---------|
D|--11----9-----|-------0----|
A|--------------|--3---------|
E|--------------|------------|

              (n.r) (n.r)            (Not relative)
e|--7---2------12----11----5----|--13----12--13----11----|
B|---------1---------------3----|--11--------------0-----|
G|--7------0---13----11----2----|------------------0-----|
D|--5----------11----9-----0----|--13--------------------|
A|---------3--------------------|------------------------|
E|------------------------------|------------------0-----|

    (n.r)                   (n.r)
e|--11----9----7----0----|--6----7----7----9----11----|
B|--------0----0----0----|--0----0----0----0----0-----|
G|------------------0----|----------------------------|
D|-----------------------|----------------------------|
A|-----------------------|----------------------------|
E|--0---------------0----|----------------------------|            
Submit corrections


        2U  lessons Hard to play? Try these video lessons and learn fast 2U  lessons
        
↑ Back to top | Tablatures and chords for acoustic guitar and electric guitar, ukulele, drums are parodies/interpretations of the original songs. You may use it for private study, scholarship, research or language learning purposes only