» » »

David Crowder Band - The Heights/Cry Mercy Tabs

Artists:  A B C D E F G H I J K L M N O P Q R S T U V W X Y Z # 

The Heights/Cry Mercy Tabs

(ver. 1) Click to play this song!
David Crowder Band
 Rating:
4/5 (4 votes)

 The Heights/Cry Mercy lessons Tabs too difficult? Try these video lessons and learn fast
 
                These songs are close to how David plays it but it is a little different.   Im not 
good at showing timing either so listen to the CD to get the timing right.

The Heights:    X2             X2              X3
e-----------------I--------------I---------------I----------------
B-------3---------I-----3--------I-----3---------I--------3----3--
G------0--0-----0-I----0--0----0-I----0--0-----0-I------0----0----
D----4------4-4---I--4-----4-4---I--4------4-4---I----4----4------
A--2--------------I0-------------I---------------I-------0--------
E-----------------I--------------I3--------------I--3-------------

Keep playing that throughout the first part.  When it transitions into Cry Mercy you 
play the low E string
e------
B------
G------
D------
A------
E--0---

Cry Mercy:
e----------------------------------------------------
B----------------------------------------------------
G----------------------------------------------------
D-------44-XX--------7--77---------------------------
A--2--2-22-XX--2/5-5-5--55-------55-X-5-X-5-----5-5--
E----------XX--------------0-2/3-33-X-3-X-3-2/3-3-3-0

That is the main part for the verses.

When he sings “I lift my eyes etc.........” you play the chords:
e--------------------------------------------
B------------------------------------------3-
G--4---------4---------4---------4---------2-
D--2----5----2----5----2----5----2----5----2-
A--4----2----4----2----4----2----4----2----0-
E--2----3----2----3----2----3----2----3------

Here is the chorus, its just Bm, A, G, and A over again.
e------------------------------------------------
B--3-3-3-XXX-3-XX-3--33-XX---33-XXX-3-XX-3--33-XX
G--0-0-0-XXX-0-XX-2--22-XX---00-XXX-0-XX-2--22-XX
D--X-X-X-XXX-X-XX-2--22-XX---00-XXX-0-XX-2--22-XX
A--2-2-2-XXX-2-XX-0--00-XX------XXX---XX-0--00-XX
E--------------------------2-33-XXX-3-XX-------XX
You just repeat all of those parts over and over untill the breakdown in which you 
play this:
e---------------------------------
B-----3------3------3-3----3-----3
G-----0------2------0-0----0-----2
D-----X------2------0-0----0-----2
A--22-2-2-00-0-0----X---------0---
E----------------33-3----3--------

You play that 4 times then you end on:
e------
B------
G------
D------
A------
E--0---

Then you play the heights riff again untill it fades away.


Play in Christ
</PRE
            
Submit corrections


        The Heights/Cry Mercy lessons Hard to play? Try these video lessons and learn fast The Heights/Cry Mercy lessons
        
↑ Back to top | Tablatures and chords for acoustic guitar and electric guitar, ukulele, drums are parodies/interpretations of the original songs. You may use it for private study, scholarship, research or language learning purposes only