» » »

David Crowder Band - The Glory Of It All Tabs

Artists:  A B C D E F G H I J K L M N O P Q R S T U V W X Y Z # 

The Glory Of It All Tabs

(ver. 1) Click to play this song!
David Crowder Band
 Rating:
4.2/5 (5 votes)

 The Glory Of It All lessons Tabs too difficult? Try these video lessons and learn fast
 
                I got most of this from the New Song Cafe. 

Tuning: ½ A Step Down ( Eb-Ab-Db-Gb-Bb-Eb)

Intro:
Eb -----------|-----------|--------------|--------------|
Bb -----------|-----------|--------------|--------------|
Gb -----------|-----------|--------------|--------------|
Db --2-2-2-2--/--5-5-5-5--|--9--9--9--9--|--9--9--9--9--|
Ab --3-3-3-3--/--7-7-7-7--|--10-10-10-10-|--10-10-10-10-|
Eb -----------|-----------|--------------|--------------|

Eb -----------|-----------|--------------|--------------|
Bb -----------|-----------|--------------|--------------|
Gb -----------|-----------|--------------|--------------|
Db --2-2-2-2--/--5-5-5-5--/--9--9--9--9--|--9--9--9--9--|
Ab --3-3-3-3--/--7-7-7-7--/--10-10-10-10-|--10-10-10-10-|
Eb -----------|-----------|--------------|--10-10-10-10-|
Verse:

At the start          He was there        He was there...
Eb ---------|---------|---------|---------|-------------|-------------|
Bb ---------|---------|---------|---------|-------------|-------------|
Gb ---------|---------|---------|---------|-------------|-------------|
Db -2-2-2-2-|-2-2-2-2-/-5-5-5-5-|-5-5-5-5-/-9--9--9--9--|-9--9--9--9--|
Ab -3-3-3-3-|-3-3-3-3-/-7-7-7-7-|-7-7-7-7-/-10-10-10-10-|-10-10-10-10-|
Eb ---------|---------|---------|---------|-------------|-------------|

In the end            He'll be there      He'll be there
Eb ---------|---------|---------|---------|-------------|-------------|
Bb ---------|---------|---------|---------|-------------|-------------|
Gb ---------|---------|---------|---------|-------------|-------------|
Db -2-2-2-2-|-2-2-2-2-/-5-5-5-5-|-5-5-5-5-/-9--9--9--9--|-9--9--9--9--|
Ab -3-3-3-3-|-3-3-3-3-/-7-7-7-7-|-7-7-7-7-/-10-10-10-10-|-10-10-10-10-|
Eb ---------|---------|---------|---------|-------------|-10-10-10-10-|

Bridge:

                  And After All   Our hands have wrought 
Eb --------------|-------------|-------------|-------------|
Bb --------------|-------------|-------------|-------------|
Gb --------------|-------------|-------------|-------------|
Db --10-10-10-10-|-10-10-10-10-|-10-10-10-10-|-10-10-10-10-|
Ab --8--8--8--8--|-8--8--8--8--/-7--7--7--7--|-7--7--7--7--|
Eb --------------|-------------|-------------|-------------|
                  He forgives... (Oh the glory of it) <-- Beginning of chorus
Eb --------------|-------------|-------------|-------------|
Bb --------------|-------------|-------------|-------------|
Gb --------------|-------------|-------------|-------------|
Db --10-10-10-10-|-10-10-10-10-|-9--9--9--9--|-9--9--9--9--| 
Ab --10-10-10-10-|-10-10-10-10-|-10-10-10-10-|-10-10-10-10-|
Eb --8--8--8--8--|-8--8--8--8--|-7--7--7--7--|-7--7--7--7--|

Chorus:
(I'm not so sure about this part but i just play what i think i hear)
     All     is    He    came    here, For the rescue of us 
Eb --3--3--3--3--|--3--3--3--3--|--3--3--3--3--|--3--3--3--3--|
Bb --1--1--1--1--|--1--1--1--1--|--3--3--3--3--|--3--3--3--3--|
Gb --2--2--2--2--|--2--2--2--2--|--0--0--0--0--|--0--0--0--0--|
Db --3--3--3--3--|--3--3--3--3--|--0--0--0--0--|--0--0--0--0--|
Ab --0--0--0--0--|--0--0--0--0--|--2--2--2--2--|--2--2--2--2--|
Eb --0--0--0--0--|--0--0--0--0--|--3--3--3--3--|--3--3--3--3--|

     all,     That    we    may   live,  For  the  glory  of  it        
Eb --3--3--3--3--|--3--3--3--3--|--3--3--3--3--|--3--3--3--3--|
Bb --1--1--1--1--|--1--1--1--1--|--3--3--3--3--|--3--3--3--3--|
Gb --2--2--2--2--|--2--2--2--2--|--0--0--0--0--|--0--0--0--0--|
Db --3--3--3--3--|--3--3--3--3--|--0--0--0--0--|--0--0--0--0--|
Ab --0--0--0--0--|--0--0--0--0--|--2--2--2--2--|--2--2--2--2--|
Eb --0--0--0--0--|--0--0--0--0--|--3--3--3--3--|--3--3--3--3--|

     all,    Oh    the    glory    of   it   all...
Eb --3--3--3--3--|--3--3--3--3--|--3--3--3--3--|--3--3--3--3--|
Bb --1--1--1--1--|--1--1--1--1--|--3--3--3--3--|--3--3--3--3--|
Gb --2--2--2--2--|--2--2--2--2--|--0--0--0--0--|--0--0--0--0--|
Db --3--3--3--3--|--3--3--3--3--|--0--0--0--0--|--0--0--0--0--|
Ab --0--0--0--0--|--0--0--0--0--|--2--2--2--2--|--2--2--2--2--|
Eb --0--0--0--0--|--0--0--0--0--|--3--3--3--3--|--3--3--3--3--|

Repeat intro
Verse 2:
(Same tabs)
All is lost find him there 
Find him there
After night dawn is there 
Dawn is there

Bridge 2: 
                   And after all     Falls apart
Eb --------------|-------------|-------------|-------------|
Bb --------------|-------------|-------------|-------------|
Gb --------------|-------------|-------------|-------------|
Db --10-10-10-10-|-10-10-10-10-|-10-10-10-10-|-10-10-10-10-|
Ab --8--8--8--8--|-8--8--8--8--/-7--7--7--7--|-7--7--7--7--|
Eb --------------|-------------|-------------|-------------|
     He repairs                   He repairs        Oh  the glory of it 
Eb --------------|-------------|-------------|-------------|-------------|
Bb --------------|-------------|-------------|-------------|-------------|
Gb --------------|-------------|-------------|-------------|-------------|
Db --10-10-10-10-|-10-10-10-10-|-9--9--9--9--|-9--9--9--9--|-9--9--9--9--|
Ab --10-10-10-10-|-10-10-10-10-|-10-10-10-10-|-10-10-10-10-|-10-10-10-10-|
Eb --8--8--8--8--|-8--8--8--8--|-7--7--7--7--|-7--7--7--7--|-7--7--7--7--|

Chorus 2:
     all    is     He    came      Here, For the rescue of us 
Eb --3--3--3--3--|--3--3--3--3--|--3--3--3--3--|--3--3--3--3--|
Bb --1--1--1--1--|--1--1--1--1--|--3--3--3--3--|--3--3--3--3--|
Gb --2--2--2--2--|--2--2--2--2--|--0--0--0--0--|--0--0--0--0--|
Db --3--3--3--3--|--3--3--3--3--|--0--0--0--0--|--0--0--0--0--|
Ab --0--0--0--0--|--0--0--0--0--|--2--2--2--2--|--2--2--2--2--|
Eb --0--0--0--0--|--0--0--0--0--|--3--3--3--3--|--3--3--3--3--|

     all         That we  may    live  For the glory of it
Eb --3--3--3--3--|--3--3--3--3--|--3--3--3--3--|--3--3--3--3--|
Bb --1--1--1--1--|--1--1--1--1--|--3--3--3--3--|--3--3--3--3--|
Gb --2--2--2--2--|--2--2--2--2--|--0--0--0--0--|--0--0--0--0--|
Db --3--3--3--3--|--3--3--3--3--|--0--0--0--0--|--0--0--0--0--|
Ab --0--0--0--0--|--0--0--0--0--|--2--2--2--2--|--2--2--2--2--|
Eb --0--0--0--0--|--0--0--0--0--|--3--3--3--3--|--3--3--3--3--|

     all       Oh    He   Is     Here, With redemption from the
Eb --3--3--3--3--|--3--3--3--3--|--3--3--3--3--|--3--3--3--3--|
Bb --1--1--1--1--|--1--1--1--1--|--3--3--3--3--|--3--3--3--3--|
Gb --2--2--2--2--|--2--2--2--2--|--0--0--0--0--|--0--0--0--0--|
Db --3--3--3--3--|--3--3--3--3--|--0--0--0--0--|--0--0--0--0--|
Ab --0--0--0--0--|--0--0--0--0--|--2--2--2--2--|--2--2--2--2--|
Eb --0--0--0--0--|--0--0--0--0--|--3--3--3--3--|--3--3--3--3--|

     Fall   That    we     may    live  For  the  glory of it 
Eb --3--3--3--3--|--3--3--3--3--|--3--3--3--3--|--3--3--3--3--|
Bb --1--1--1--1--|--1--1--1--1--|--3--3--3--3--|--3--3--3--3--|
Gb --2--2--2--2--|--2--2--2--2--|--0--0--0--0--|--0--0--0--0--|
Db --3--3--3--3--|--3--3--3--3--|--0--0--0--0--|--0--0--0--0--|
Ab --0--0--0--0--|--0--0--0--0--|--2--2--2--2--|--2--2--2--2--|
Eb --0--0--0--0--|--0--0--0--0--|--3--3--3--3--|--3--3--3--3--|

     all     Oh  the glory of it all          The glory of it  
Eb --3--3--3--3--|--3--3--3--3--|--3--3--3--3--|--3--3--3--3--|
Bb --1--1--1--1--|--1--1--1--1--|--3--3--3--3--|--3--3--3--3--|
Gb --2--2--2--2--|--2--2--2--2--|--0--0--0--0--|--0--0--0--0--|
Db --3--3--3--3--|--3--3--3--3--|--0--0--0--0--|--0--0--0--0--|
Ab --0--0--0--0--|--0--0--0--0--|--2--2--2--2--|--2--2--2--2--|
Eb --0--0--0--0--|--0--0--0--0--|--3--3--3--3--|--3--3--3--3--|

     all     Oh  the glory of it all      The glory of it  
Eb --3--3--3--3--|--3--3--3--3--|--3--3--3--3--|--3--3--3--3--|
Bb --1--1--1--1--|--1--1--1--1--|--3--3--3--3--|--3--3--3--3--|
Gb --2--2--2--2--|--2--2--2--2--|--0--0--0--0--|--0--0--0--0--|
Db --3--3--3--3--|--3--3--3--3--|--0--0--0--0--|--0--0--0--0--|
Ab --0--0--0--0--|--0--0--0--0--|--2--2--2--2--|--2--2--2--2--|
Eb --0--0--0--0--|--0--0--0--0--|--3--3--3--3--|--3--3--3--3--|

Bridge 2:

Eb --------------|-------------|-------------|-------------|
Bb --------------|-------------|-------------|-------------|
Gb --------------|-------------|-------------|-------------|
Db --10-10-10-10-|-10-10-10-10-|-10-10-10-10-|-10-10-10-10-|
Ab --8--8--8--8--|-8--8--8--8--/-7--7--7--7--|-7--7--7--7--|
Eb --------------|-------------|-------------|-------------|

Eb --------------|-------------|-------------|-------------|
Bb --------------|-------------|-------------|-------------|
Gb --------------|-------------|-------------|-------------|
Db --10-10-10-10-|-10-10-10-10-|-9--9--9--9--|-9--9--9--9--|
Ab --10-10-10-10-|-10-10-10-10-|-10-10-10-10-|-10-10-10-10-|
Eb --8--8--8--8--|-8--8--8--8--|-7--7--7--7--|-7--7--7--7--|

                   After night               comes the light
Eb --------------|-------------|-------------|-------------|
Bb --------------|-------------|-------------|-------------|
Gb --------------|-------------|-------------|-------------|
Db --10-10-10-10-|-10-10-10-10-|-10-10-10-10-|-10-10-10-10-|
Ab --8--8--8--8--|-8--8--8--8--/-7--7--7--7--|-7--7--7--7--|
Eb --------------|-------------|-------------|-------------|
                  dawn is here               dawn is here
Eb --------------|-------------|-------------|-------------|
Bb --------------|-------------|-------------|-------------|
Gb --------------|-------------|-------------|-------------|
Db --10-10-10-10-|-10-10-10-10-|-9--9--9--9--|-9--9--9--9--|
Ab --10-10-10-10-|-10-10-10-10-|-10-10-10-10-|-10-10-10-10-|
Eb --8--8--8--8--|-8--8--8--8--|-7--7--7--7--|-7--7--7--7--|

                  It’s a new day               It’s a new day
Eb --------------|-------------|-------------|-------------|
Bb --------------|-------------|-------------|-------------|
Gb --------------|-------------|-------------|-------------|
Db --10-10-10-10-|-10-10-10-10-|-10-10-10-10-|-10-10-10-10-|
Ab --8--8--8--8--|-8--8--8--8--/-7--7--7--7--|-7--7--7--7--|
Eb --------------|-------------|-------------|-------------|

         Everything will change   Things will never be the same
Eb --------------|-------------|-------------|-------------|
Bb --------------|-------------|-------------|-------------|
Gb --------------|-------------|-------------|-------------|
Db --10-10-10-10-|-10-10-10-10-|-9--9--9--9--|-9--9--9--9--|
Ab --10-10-10-10-|-10-10-10-10-|-10-10-10-10-|-10-10-10-10-|
Eb --8--8--8--8--|-8--8--8--8--|-7--7--7--7--|-7--7--7--7--|

     We will never be the same   We will never be the same
Eb --------------|-------------|-------------|-------------|
Bb --------------|-------------|-------------|-------------|
Gb --------------|-------------|-------------|-------------|
Db --10-10-10-10-|-10-10-10-10-|-10-10-10-10-|-10-10-10-10-|
Ab --8--8--8--8--|-8--8--8--8--/-7--7--7--7--|-7--7--7--7--|
Eb --------------|-------------|-------------|-------------|

    We will never be the same  We will never be the same Oh the glory of it
Eb --------------|-------------|-------------|-------------|-------------|
Bb --------------|-------------|-------------|-------------|-------------|
Gb --------------|-------------|-------------|-------------|-------------|
Db --10-10-10-10-|-10-10-10-10-|-9--9--9--9--|-9--9--9--9--|-9--9--9--9--|
Ab --10-10-10-10-|-10-10-10-10-|-10-10-10-10-|-10-10-10-10-|-10-10-10-10-|
Eb --8--8--8--8--|-8--8--8--8--|-7--7--7--7--|-7--7--7--7--|-7--7--7--7--|

Final Chorus is the same as chorus 2 with different lyrics.

Oh, The glory of it all is
You came here
For the rescue of us all
That we may live
For the glory of it all 

Oh You are here
With redemption for us all
That we may live
For the glory of it all
Oh the glory of it all
The glory of it all 
Oh the glory of it all

Pre-Ending:

      Oh  everything    will    change, Things will never be the
Eb --3--3--3--3--|--3--3--3--3--|--3--3--3--3--|--3--3--3--3--|
Bb --1--1--1--1--|--1--1--1--1--|--3--3--3--3--|--3--3--3--3--|
Gb --2--2--2--2--|--2--2--2--2--|--0--0--0--0--|--0--0--0--0--|
Db --3--3--3--3--|--3--3--3--3--|--0--0--0--0--|--0--0--0--0--|
Ab --0--0--0--0--|--0--0--0--0--|--2--2--2--2--|--2--2--2--2--|
Eb --0--0--0--0--|--0--0--0--0--|--3--3--3--3--|--3--3--3--3--|

     same,    We will never be the same, We will never be the 
Eb --3--3--3--3--|--3--3--3--3--|--3--3--3--3--|--3--3--3--3--|
Bb --1--1--1--1--|--1--1--1--1--|--3--3--3--3--|--3--3--3--3--|
Gb --2--2--2--2--|--2--2--2--2--|--0--0--0--0--|--0--0--0--0--|
Db --3--3--3--3--|--3--3--3--3--|--0--0--0--0--|--0--0--0--0--|
Ab --0--0--0--0--|--0--0--0--0--|--2--2--2--2--|--2--2--2--2--|
Eb --0--0--0--0--|--0--0--0--0--|--3--3--3--3--|--3--3--3--3--|

    same, We will never be the same, We will never be the 
Eb --3--3--3--3--|--3--3--3--3--|--3--3--3--3--|--3--3--3--3--|
Bb --1--1--1--1--|--1--1--1--1--|--3--3--3--3--|--3--3--3--3--|
Gb --2--2--2--2--|--2--2--2--2--|--0--0--0--0--|--0--0--0--0--|
Db --3--3--3--3--|--3--3--3--3--|--0--0--0--0--|--0--0--0--0--|
Ab --0--0--0--0--|--0--0--0--0--|--2--2--2--2--|--2--2--2--2--|
Eb --0--0--0--0--|--0--0--0--0--|--3--3--3--3--|--3--3--3--3--|

    same,   We will never be the same,   We will never be the    same...
Eb --3--3--3--3--|--3--3--3--3--|--3--3--3--3--|--3--3--3--3--|--3--3--3--3-|
Bb --1--1--1--1--|--1--1--1--1--|--3--3--3--3--|--3--3--3--3--|--3--3--3--3-|
Gb --2--2--2--2--|--2--2--2--2--|--0--0--0--0--|--0--0--0--0--|--0--0--0--0-|
Db --3--3--3--3--|--3--3--3--3--|--0--0--0--0--|--0--0--0--0--|--0--0--0--0-|
Ab --0--0--0--0--|--0--0--0--0--|--2--2--2--2--|--2--2--2--2--|--2--2--2--2-|
Eb --0--0--0--0--|--0--0--0--0--|--3--3--3--3--|--3--3--3--3--|--3--3--3--3-|

Ending:
Eb -----------|-----------|--------------|--------------|
Bb -----------|-----------|--------------|--------------|
Gb -----------|-----------|--------------|--------------|
Db --2-2-2-2--/--5-5-5-5--|--9--9--9--9--|--9--9--9--9--|
Ab --3-3-3-3--/--7-7-7-7--|--10-10-10-10-|--10-10-10-10-|
Eb -----------|-----------|--------------|--------------|

Eb -----------|-----------|--------------|--------------|-----||
Bb -----------|-----------|--------------|--------------|--1--||
Gb -----------|-----------|--------------|--------------|-----||
Db --2-2-2-2--/--5-5-5-5--/--9--9--9--9--|--9--9--9--9--|--2--||
Ab --3-3-3-3--/--7-7-7-7--/--10-10-10-10-|--10-10-10-10-|--3--||
Eb -----------|-----------|--------------|--10-10-10-10-|-----||

Hope its not too wrong or confusing. Enjoy =)
            
Submit corrections


        The Glory Of It All lessons Hard to play? Try these video lessons and learn fast The Glory Of It All lessons
        
↑ Back to top | Tablatures and chords for acoustic guitar and electric guitar, ukulele, drums are parodies/interpretations of the original songs. You may use it for private study, scholarship, research or language learning purposes only