» » »

David Crowder Band - The Color Song Tabs

Artists:  A B C D E F G H I J K L M N O P Q R S T U V W X Y Z # 

The Color Song Tabs

(ver. 1) Click to play this song!
David Crowder Band
 Rating:
4/5 (4 votes)

 The Color Song lessons Tabs too difficult? Try these video lessons and learn fast
 
                Intro:
I know this isnt perfect but its pretty close.

e--------------------------------------
B--------------------------------------
G--/99999997--7-X-7-XX-77--------------
D--/99999999--7-X-7-XX-77-77--5h7-7-5h7
A--/77777777--5-X-5-XX-55-77--7-7-7-7-7
E-------------------------55--5-5-5-5-5

You continue playing that throughout the verses.

Little bit before chorus (and everywhere..you remind me)
B  C#  D


Chorus:
E              E/C#
You are........You Were
E/A            E/B
You Will.......Always be    and
E              E/C#
You are........You Were
E/A            E/B
You Will.......Always be our God

When he sings God you start playing the Intro/Verse riff.

Thats really all there is.  You just reapeat those as nessacary.

Here are the chords:
   E        E/C#  E/A     E/B      F#     G        A
e---------------------------------------------------
B---------------------------------------------------
G--9---------9-----9-------9-----------------------2
D--9---------9-----9-------9-------4------5--------2
A--7---------X-----0-------X-------4------5--------0
E--0---------9-----X-------7-------2------3---------


Play in Christ
            
Submit corrections


        The Color Song lessons Hard to play? Try these video lessons and learn fast The Color Song lessons
        
↑ Back to top | Tablatures and chords for acoustic guitar and electric guitar, ukulele, drums are parodies/interpretations of the original songs. You may use it for private study, scholarship, research or language learning purposes only