» » »

David Crowder Band - Stars Tabs

Artists:  A B C D E F G H I J K L M N O P Q R S T U V W X Y Z # 

Stars Tabs

(ver. 1) Click to play this song!
David Crowder Band
 Rating:
4/5 (4 votes)

 Stars lessons Tabs too difficult? Try these video lessons and learn fast
 
                This is the last track on Illuminate.
On the CD Illuminate he tunes down 1/2 step, on the Passion CD its in standard.  You can fix it depending on which CD your playing with.

e----0--0-------0-000--
B----1----------1-111--
G----0------0h2-2-220--
D----2---2h3----3-333--
A--3-3----------3------
E----------------------

You play that through the intro and the verses.  When the chords change it goes into this:

e-----3-3-3---3----330--0---0-0-0---000--000--
B-----3-3-0h1-1-0--000--0h1-1-1-0h1-111--111--
G-----0---0---0----00---2---2-2-2---222--220--
D--0--0---0---0---------3---3-3-3---333--333--
A--2--2-----------------3---3-3-3---333--333--
E--3--3---------------------------------------

Play In Christ
            
Submit corrections


        Stars lessons Hard to play? Try these video lessons and learn fast Stars lessons
        
↑ Back to top | Tablatures and chords for acoustic guitar and electric guitar, ukulele, drums are parodies/interpretations of the original songs. You may use it for private study, scholarship, research or language learning purposes only