» » »

David Crowder Band - Alleluia Sing Tabs

Artists:  A B C D E F G H I J K L M N O P Q R S T U V W X Y Z # 

Alleluia Sing Tabs

(ver. 1) Click to play this song!
David Crowder Band
 Rating:
4/5 (4 votes)

 Alleluia Sing lessons Tabs too difficult? Try these video lessons and learn fast
 
                ----------------------------------------------------------------------------
                             Alleluia Sing - David Crowder Band (DCB)
----------------------------------------------------------------------------

Tuning:Standard

(0:58-1:30)
e|--------------------------------------------------------------------------|
B|----11-11-11-11p10--------------------------------------------------------|
G|-------------------10-----------------------------------------------------|
D|----------------------12~-----10-10-----10-10h12~-------------------------|
A|--------------------------------------------------------------------------|
E|--------------------------------------------------------------------------|


e|--------------------------------------------------------------------------|
B|----11-11-11-11p10--------------------------------------------------------|
G|-------------------10-----------------------------------------------------|
D|----------------------12~-----10-10-----10-10s/12  10/8-8~----- ----------|
A|--------------------------------------------------------------------------|
E|--------------------------------------------------------------------------|

REPEAT THE WHOLE THING 2 1/2 TIMES.  THEN IT BREAKS INTO THE CHORUS

(THEN IT CHANGES SLIGHTLY)

AFTER CHORUS/ 2nd VERSE:
(2:05)

e|-----------------------------------------------------------------------------|
B|----11-11-11-11p10--------------11-11-11-11p10-------------------------------|
G|-------------------10-----------------------------10—10h12-------------------|
D|----------------------12~--------------------------------------- ------------|
A|-----------------------------------------------------------------------------|
E|-----------------------------------------------------------------------------|


e|--------------------------------------------------------------------------|
B|----11-11-11-11p10--------------------------------------------------------|
G|-------------------10-----------------------------------------------------|
D|----------------------12~-----10-10-----10-10s/12  10/8-8~----- ----------|
A|--------------------------------------------------------------------------|
E|--------------------------------------------------------------------------|


e|-----------------------------------------------------------------------------|
B|----11-11-11-11p10--------------11-11-11-11p10-------------------------------|
G|-------------------10-----------------------------10—10h12-------------------|
D|----------------------12~--------------------------------------- ------------|
A|-----------------------------------------------------------------------------|
E|-----------------------------------------------------------------------------|


e|----------------------------------------------------------------------------|
B|----11-11-11-11p10----------------------------------------------------------|
G|-------------------10-------------------------------------------------------|
D|----------------------12~-----10-10-----10-10h12~--GOES INTO CHORUS---------|
A|----------------------------------------------------------------------------|
E|----------------------------------------------------------------------------|


| /  slide up
| \  slide down
| h  hammer-on
| p  pull-off
| ~  vibrato
| +  harmonic
| x  Mute note
===============================================================================
            
Submit corrections


        Alleluia Sing lessons Hard to play? Try these video lessons and learn fast Alleluia Sing lessons
        
↑ Back to top | Tablatures and chords for acoustic guitar and electric guitar, ukulele, drums are parodies/interpretations of the original songs. You may use it for private study, scholarship, research or language learning purposes only