» » »

David Cook - Mr Sensitive Tabs

Artists:  A B C D E F G H I J K L M N O P Q R S T U V W X Y Z # 

Mr Sensitive Tabs

(ver. 1) Click to play this song!
David Cook
 Rating:
4/5 (4 votes)

 Mr Sensitive lessons Tabs too difficult? Try these video lessons and learn fast
 
                -------------------------------------------------------------------------------
           Mr. Sensitive (acoustic version) - David Cook
-------------------------------------------------------------------------------
Words/music by David Cook and Raine Maida
As played acoustically by David Cook and Neal Tiemann


Tuning: Db-Ab-Db-Gb-Bb-eb

INTRO RIFF is natural harmonics played at the following frets:

eb|---------------------------------------------------------------------------|
Bb|----7-----------7----------------------------------------------------------|
Gb|---------7-----------7-----------------------------------------------------|
Db|-7-----------7-------------------------------------------------------------|
Ab|------9-----------9--------------------------------------------------------|
Db|---------------------------------------------------------------------------|


VERSE 1

D/G
Day in and day out

          Bm
Watch him scream, watch him shout

            D
Through the silence


Through the silence

         D/G
Give him ears, give him eyes

          Bm
Give some point to the cries

          D
And the violence


Oh, the violence

         Em          G 
Hear him scream your name



CHORUS

D    F#m       Bm                        G-G-G
I... I  would like to introduce Mr. Sensitive

    D F#m    Bm                                 G-G-G
The one who never let the worst get the best of him

D/G     Bm       D
Get the best of him



VERSE 2 - chords same as VERSE 1

(Best I can tell, Tiemann's countermelody on this verse
 involves droning the D note on the open 4th string while
 playing around with a D-major scale on the 3rd, 2nd, 
 and 1st strings - I'm not smart enough to tab it)

This city feels low
Against the gleam and the glow
Of his diligence
To their elegance
Just feel anger, feel pain
Feel the sun and the rain
Just feel something
Oh, feel something
Hear him scream your name

CHORUS 2

D    F#m       Bm                        G-G-G
I... I  would like to introduce Mr. Sensitive

    D F#m    Bm                                 G-G-G
The one who never let the worst get the best of him

D    F#m       Bm                        G-G-G
I... I  would like to introduce Mr. Sensitive

    D F#m    Bm                                 G-G-G
The one who never let the worst get the best of him

BRIDGE


eb|-2-2-2--------------------2-2-2--------------------------------------------------|
Bb|-3-3-3--------------------3-3-3--------------------------------------------------|
Gb|-2-2-2--------------------2-2-2--------------------------------------------------|
Db|-0-0-0--------------------0-0-0--------------------------------------------------|
Ab|-0-0-0------------2/4-----0-0-0------------2/4-----------------------------------|
Db|-0-0-0--0-2-4-2-0---------0-0-0--0-2-4-2-0---------------------------------------|


Bm                       D
They throw the stones at bricks and bones

G?                        G
He didn't stand a chance, they said

eb|-2-2-2--------------------2-2-2--------------------------------------------------|
Bb|-3-3-3--------------------3-3-3--------------------------------------------------|
Gb|-2-2-2--------------------2-2-2--------------------------------------------------|
Db|-0-0-0--------------------0-0-0--------------------------------------------------|
Ab|-0-0-0------------2/4-----0-0-0------------2/4-----------------------------------|
Db|-0-0-0--0-2-4-2-0---------0-0-0--0-2-4-2-0---------------------------------------|


Bm                D
A little boy, the world in tow

G?               G
But ignorance is bliss



REPEAT INTRO RIFF

REPEAT CHORUS 2



eb|-2-2-2--------------------2-2-2--------------------------------------------------|
Bb|-3-3-3--------------------3-3-3--------------------------------------------------|
Gb|-2-2-2--------------------2-2-2--------------------------------------------------|
Db|-0-0-0--------------------0-0-0--------------------------------------------------|
Ab|-0-0-0------------2/4-----0-0-0------------2/4-----------------------------------|
Db|-0-0-0--0-2-4-2-0---------0-0-0--0-2-4-2-0---------------------------------------|


Get the best of him
            
Submit corrections


        Mr Sensitive lessons Hard to play? Try these video lessons and learn fast Mr Sensitive lessons
        
↑ Back to top | Tablatures and chords for acoustic guitar and electric guitar, ukulele, drums are parodies/interpretations of the original songs. You may use it for private study, scholarship, research or language learning purposes only