Home » D » David Cook »

David Cook - Declaration Tabs

Artists:  A B C D E F G H I J K L M N O P Q R S T U V W X Y Z # 

Declaration Tabs

(ver. 1) Click to play this song!
David Cook
 Rating:
4/5 (4 votes)
                David Cook - Declaration

Tuning: Standard and Capo 3 (adjust if necessary)
These are the fingerpicking parts of the song to complement the chords.
EVERYTHING is relative to the capo.  
I'm still tabbing on acoustic so sorry if there may be some inaccuracies.

Verse

e|-----------12----------12----------10----------10----------8-----------8--|
B|-----10-10----10-10-10----10-10-10----10-10-10----10-10-10----10-10-10----|
G|--------------------------------------------------------------------------|
D|--------------------------------------------------------------------------|
A|--------------------------------------------------------------------------|
E|--------------------------------------------------------------------------|

e|------------8----------10-------------------------------------------------|
B|--10-10-10----10-10-10----------------------------------------------------|
G|--------------------------------------------------------------------------|
D|--------------------------------------------------------------------------|
A|--------------------------------------------------------------------------|
E|--------------------------------------------------------------------------|

Prechorus 1
 
	I’ve been waiting far too long.....
e|------8---8----7---7-------------7----------------------------------------|
B|-----------------------10--10---------------------------------------------|
G|----9---9----9---9----9---9----9---9--------------------------------------|
D|--------------------------------------------------------------------------|
A|--------------------------------------------------------------------------|
E|--------------------------------------------------------------------------|

Chorus
[I believe they just use power chords(relative to capo)]:

      Am       C       G       F       
e|--------------------------------------------------------------------------|
B|--------------------------------------------------------------------------|
G|-------------5------------------------------------------------------------|
D|----7--------5-------5-------3--------------------------------------------|
A|----7--------3-------5-------3--------------------------------------------|
E|----5----------------3-------1--------------------------------------------|

Verse

Prechorus 2

       You.....It's you............
e|--------------------------------------------------------------------------|
B|--------------------------8---10---12---13---15---------------------------|
G|------2---4---5---7---9---------------------------------------------------|
D|--------------------------5----7----9---10---12---------------------------|
A|------0---2---3---5---7---------------------------------------------------|
E|--------------------------------------------------------------------------|

Chorus

Bridge
(fingerpick the chords, sounds something like this):

e|--------------------------------------------------------------------------|
B|-------1-----1----------1-----1----------0-----0----------0-----0---------|
G|-----2-----2-----2----2-----2-----2----0-----0-----0----0-----0-----0-----|
D|---3-----3-----3----2-----2-----2-----------------------------------------|
A|--------------------------------------------------------------------------|
E|-------------------------------------3-----3-----3----0-----0-----0-------|

Chorus 2
The beginning of the chorus goes like this:

e|--------------------------------------------------------------------------|
B|---1-1-3-1---1-1-3-1---1-1-3-1---1-1-3-1----------------------------------|
G|----0---------0---------0---------0---------------------------------------|
D|--------------------------------------------------------------------------|
A|--3---------2---------0---------2(or 3)-----------------------------------|
E|--------------------------------------------------------------------------|
									X2
           Am
Cause you love
        C 
Can you bleed
         G 
and you stole my soul 
      F
and set me free


Outro
            
Submit corrections

↑ Back to top | Tablatures and chords for acoustic guitar and electric guitar, ukulele, drums are parodies/interpretations of the original songs. You may use it for private study, scholarship, research or language learning purposes only