Home » D » David Bowie »

David Bowie - The Jean Genie Tabs

Artists:  A B C D E F G H I J K L M N O P Q R S T U V W X Y Z # 

The Jean Genie Tabs

(ver. 1) Click to play this song!
David Bowie
 Rating:
3.6/5 (23 votes)
                 Intro
  Q=130(8=s8)
  E
 4/4
  Gtr I (El. Gtr. w/ dist.)
   |--3--|  |--3--|  |--3--|  |--3--|
   E  E  E  E  E  E  E  E  E  E  E  E
|-------------------------------------|
|-12-12-12-12-12-12-12-12-12-12-12-12-|
|-13-13-13-13-13-13-13-13-13-13-13-13-|
|-14-14-14-14-14-14-14-14-14-14-14-14-|
|-14-14-14-14-14-14-14-14-14-14-14-14-|
|-12-12-12-12-12-12-12-12-12-12-12-12-|


                                               A E             A E
                                     PM----|         PM----|
   |--3--|  |--3--|  |--3--|
   E  E  E  E  E  E  E  E  E  E  E   q  q  E E E E   q  q  E E E E
|--------------------------------0-|---------------|---------------|
|-12-12-12-12-12-12-12-12--------0-|---------0-2-0-|---------0-2-0-|
|-13-13-13-13-13-13-13-13-13-13\---|---------1-2-1-|---------1-2-1-|
|-14-14-14-14-14-14-14-14-14-14\---|-2--2--2-2-2-2-|-2--2--2-2-2-2-|
|-14-14-14-14-14-14-14-14-14-14\---|-2--2--2---0---|-2--2--2---0---|
|-12-12-12-12-12-12-12-12-12-12\---|-0--0--0-------|-0--0--0-------|


                                   1st & 2nd Verses
            A E             A E     E             A E             A E
  PM----|         PM----|           PM  PM              PM----|
  q  q  E E E E   q  q  E E E E     E E E E +E  E E E   q  q  E E E E
|---------------|---------------||--------------0-0-0-|----------------|
|---------0-2-0-|---------0-2-0-||o---0---0-(0)-0-2-0-|---------0-2-0--|
|---------1-2-1-|---------1-2-1-||----1---1-(1)-1-2-1-|---------1-2-1--|
|-2--2--2-2-2-2-|-2--2--2-2-2-2-||--------------------|-2--2--2-2-2-2--|
|-2--2--2---0---|-2--2--2---0---||o-2---2-------------|-2--2--2---0----|
|-0--0--0-------|-0--0--0-------||--0---0-------------|-0--0--0--------|


            A E             A E             A E             A E
  PM----|         PM----|         PM----|         PM----|
  q  q  E E E E   q  q  E E E E   q  q  E E E E   q  q  E E E E
|---------------|---------------|---------------|----------------|
|---------0-2-0-|---------0-2-0-|---------0-2-0-|---------0-2-0--|
|---------1-2-1-|---------1-2-1-|---------1-2-1-|---------1-2-1--|
|-2--2--2-2-2-2-|-2--2--2-2-2-2-|-2--2--2-2-2-2-|-2--2--2-2-2-2--|
|-2--2--2---0---|-2--2--2---0---|-2--2--2---0---|-2--2--2---0----|
|-0--0--0-------|-0--0--0-------|-0--0--0-------|-0--0--0--------|


            A E             A E             A E             A E
  PM----|         PM----|         PM----|         PM----|
  q  q  E E E E   q  q  E E E E   q  q  E E E E   q  q  E E E E
|---------------|---------------|---------------|----------------|
|---------0-2-0-|---------0-2-0-|---------0-2-0-|---------0-2-0--|
|---------1-2-1-|---------1-2-1-|---------1-2-1-|---------1-2-1--|
|-2--2--2-2-2-2-|-2--2--2-2-2-2-|-2--2--2-2-2-2-|-2--2--2-2-2-2--|
|-2--2--2---0---|-2--2--2---0---|-2--2--2---0---|-2--2--2---0----|
|-0--0--0-------|-0--0--0-------|-0--0--0-------|-0--0--0--------|


            A E             A E             A E             A E
  PM----|         PM----|         PM----|         PM----|
  q  q  E E E E   q  q  E E E E   q  q  E E E E   q  q  E E E E
|---------------|---------------|---------------|----------------|
|---------0-2-0-|---------0-2-0-|---------0-2-0-|---------0-2-0--|
|---------1-2-1-|---------1-2-1-|---------1-2-1-|---------1-2-1--|
|-2--2--2-2-2-2-|-2--2--2-2-2-2-|-2--2--2-2-2-2-|-2--2--2-2-2-2--|
|-2--2--2---0---|-2--2--2---0---|-2--2--2---0---|-2--2--2---0----|
|-0--0--0-------|-0--0--0-------|-0--0--0-------|-0--0--0--------|


                Chorus
                 B5
     PM----|
  Q  q  q  q     E E  q   E Q.      E E  E E +E  E E E   Q   q   E Q.
|-------------||-----------------|---------------------|-----------------|
|-------------||-----------------|---------------------|-----------------|
|-1-----------||-----------------|---------------------|-----------------|
|-2--2--2--2--||-----------------|---------------------|-9---------------|
|-2--2--2--2--||-9-9-11--11-9----|-11-9-11-9-(9)-9-9-9-|-9--11--11-9-----|
|-0--0--0--0--||-7-7--7---7-7----|--7-7--7-7-(7)-7-7-7-|-7---7---7-7-----|


   E E  E E +E  E E E   Q   q   E Q.      E E  E E +E  E E E   Q   q   E Q.
|---------------------|----------------|---------------------|-----------------|
|---------------------|----------------|---------------------|-----------------|
|---------------------|----------------|---------------------|-----------------|
|---------------------|-9--------------|---------------------|-9---------------|
|-11-9-11-9-(9)-9-9-9-|-9--11--11-9----|-11-9-11-9-(9)-9-9-9-|-9--11--11-9-----|
|--7-7--7-7-(7)-7-7-7-|-7---7---7-7----|--7-7--7-7-(7)-7-7-7-|-7---7---7-7-----|


                        A5
                                                     ~~~~
   E E  E E +E  E E E   Q  q  E Q.      E  E  E  E  +Q   Q
|---------------------|--------------|-----------------------|
|---------------------|---------5----|----10-----------------|
|---------------------|---------2----|-----9-12-11-(11)--9\--|
|---------------------|-2--4--4-2----|-/7--7-----------------|
|-11-9-11-9-(9)-9-9-9-|-0--0--0-0----|--0--------------------|
|--7-7--7-7-(7)-7-7-7-|--------------|-----------------------|


                                         Interlude
                                          E         A E             A E
                               ~~~~       PM----|         PM----|
  Q  q  E Q.      E  E  E  E  +Q   Q      q  q  E E E E   q  q  E E E E
|--------------|-----------------------||---------------|----------------|
|---------5----|----10-----------------||---------0-2-0-|---------0-2-0--|
|---------2----|-----9-12-11-(11)--9\--||---------1-2-1-|---------1-2-1--|
|-2--4--4-2----|-/7--7-----------------||-2--2--2-2-2-2-|-2--2--2-2-2-2--|
|-0--0--0-0----|--0--------------------||-2--2--2---0---|-2--2--2---0----|
|--------------|-----------------------||-0--0--0-------|-0--0--0--------|


                                                    3rd Verse
            A E             A E               A E    E         A E
  Gtr I
  PM----|         PM----|           PM----|          PM----|
  q  q  E E E E   q  q  E E E E     q  q  E E E E    q  q  E E E E
|---------------|----------------||---------------||----------------|
|---------0-2-0-|---------0-2-0-o||---------0-2-0-||---------0-2-0--|
|---------1-2-1-|---------1-2-1--||---------1-2-1-||---------1-2-1--|
|-2--2--2-2-2-2-|-2--2--2-2-2-2--||-2--2--2-2-2-2-||---------2-2-2--|
|-2--2--2---0---|-2--2--2---0---o||-2--2--2---0---||-2--2--2---0----|
|-0--0--0-------|-0--0--0--------||-0--0--0-------||-0--0--0--------|
|
| Gtr II(El. Gtr. w/ dist.)
|                                                    TP TP TP  TP
| W               W                 W                Q  Q  Q   Q
|---------------|----------------||---------------||----------------|
|---------------|---------------o||---------------||----------------|
|---------------|----------------||---------------||-9--9--9---9----|
|---------------|----------------||---------------||----------------|
|---------------|---------------o||---------------||-7--7--7---7----|
|---------------|----------------||---------------||----------------|


            A E             A E             A E             A E
  PM----|         PM----|         PM----|         PM----|
  q  q  E E E E   q  q  E E E E   q  q  E E E E   q  q  E E E E
|---------------|---------------|---------------|----------------|
|---------0-2-0-|---------0-2-0-|---------0-2-0-|---------0-2-0--|
|---------1-2-1-|---------1-2-1-|---------1-2-1-|---------1-2-1--|
|---------2-2-2-|---------2-2-2-|---------2-2-2-|---------2-2-2--|
|-2--2--2---0---|-2--2--2---0---|-2--2--2---0---|-2--2--2---0----|
|-0--0--0-------|-0--0--0-------|-0--0--0-------|-0--0--0--------|
|
| TP TP TP                                        TP TP TP  TP
| Q  Q  Q   E E   q  Q  H         W               Q  Q  Q   Q
|---------------|---------------|---------------|----------------|
|---------------|---------------|---------------|----------------|
|-9--9--9---9-9s|=7-------------|---------------|-9--9--9---9----|
|---------------|---------------|---------------|----------------|
|-7--7--7---7-7s|=5-------------|---------------|-7--7--7---7----|
|---------------|---------------|---------------|----------------|


                                                  Guitar Solo
            A E             A E             A E      E              A E
  PM----|         PM----|         PM----|            PM-------|
  q  q  E E E E   q  q  E E E E   q  q  E E E E      q     q   E  E E E
|---------------|---------------|---------------||------------------------|
|---------0-2-0-|---------0-2-0-|---------0-2-0-||----------------0-2-0---|
|---------1-2-1-|---------1-2-1-|---------1-2-1-||----------------1-2-1---|
|---------2-2-2-|---------2-2-2-|---------2-2-2-||----------------2-2-2---|
|-2--2--2---0---|-2--2--2---0---|-2--2--2---0---||---2-----2---2----0-----|
|-0--0--0-------|-0--0--0-------|-0--0--0-------||---0-----0---0----------|
|
| Gtr II
| TP TP TP                                                 ~~~~~~~
|                                                    |-3-|
| Q  Q  Q   E E   q  Q  H         W                a E E E Q  +E  E E S S
|---------------|---------------|---------------||-------3----------------|
|---------------|---------------|---------------||-----3-3-5--(5)-3S2-2p0-|
|-9--9--9---9-9s|=7-------------|---------------||-2s4--------------------|
|---------------|---------------|---------------||------------------------|
|-7--7--7---7-7s|=5-------------|---------------||------------------------|
|---------------|---------------|---------------||------------------------|


             A      E                        A E
  PM-----|                   PM--------|
  q   q  E E E      E        q      q  E E   E E
|-------------------------|----------------------|
|----------0-2------0-----|--------------0---2-0-|
|----------1-2------1-----|--------------1---2-1-|
|----------2-2------2-----|--------------2---2-2-|
|-2---2--2---0------------|--2------2--2-----0---|
|-0---0--0----------------|--0------0--0---------|
|
|                                   ~
|            |----3----|     |-3--|
| E E H      E E      +E    +E  E E H      a E E
|------------0------------|----------------------|
|------------2------------|-----2----------------|
|-2-4-4--------4b6====(4)r|=(4)-2-4-4------4s7-9-|
|-------------------------|----------------------|
|-------------------------|----------------------|
|-------------------------|----------------------|


                 A  E                              A    E
    PM-------|           PM------------|
    q   q    E E  E E    q        q      E    E      E   E
|---------------------|------------------------------------|
|--------------0--2-0-|-----------------------0------2---0-|
|--------------1--2-1-|-----------------------1------2---1-|
|--------------2--2-2-|-----------------------2------2---2-|
|---2---2----2----0---|--2--------2------2-----------0-----|
|---0---0----0--------|--0--------0------0-----------------|
|
| a E E E E  E E  E E    E      Q    E  +E    E     +E   E
|-----0---------------|--------12-----------------------12-|
|---------------------|------------------------------------|
|-7s9---9-9\--------9-|-11b13=======11-(11)r-11b13-(11)----|
|--------------5S11---|------------------------------------|
|---------------------|------------------------------------|
|---------------------|------------------------------------|


                                          A E
   PM-----------------------|
   q           q             E          E E  E
|----------------------------------------------|
|---------------------------------------0-2--0-|
|---------------------------------------1-2--1-|
|---------------------------------------2-2--2-|
|--2-----------2-------------2------------0----|
|--0-----------0-------------0-----------------|
|
|  |---3----|  |----3----|   |---3---|
|  E     E  E  E      E  E   E      +Q    E  E
|-------12-12--------12-----12--------------12-|
|----------------------------------------------|
|-11b13-------11b13=====11r-11pb13r(11)---9----|
|----------------------------------------------|
|----------------------------------------------|
|----------------------------------------------|


                     A  E                                A  E
  PM--------|                      PM-------------|
  q     q    E     E  E  E         q       q      E E     E E
|------------------------------|------------------------------|
|------------------0--2--0-----|--------------------0-----2-0-|
|------------------1--2--1-----|--------------------1-----2-1-|
|------------------2--2--2-----|--------------------2-----2-2-|
|-2-----2----2--------0--------|---2-------2------2-------0---|
|-0-----0----0-----------------|---0-------0------0-----------|
|
|                                  |-3--|  |-3--|
| E  E  E E  E     E  E  E        +E   +Q  E  E E Q    a  E E
|---12------------12-----------|------------------------------|
|------12------------12--------|------------------------------|
|-9-------9-11b13-------11b13==|=(11)r(11)-9h11p9-9---11s19-x-|
|------------------------------|------------------------------|
|------------------------------|------------------------------|
|------------------------------|------------------------------|


                                A        E                                            A        E
  PM--------------|                              PM---------------------|
  q     q          E       E     E       E       q           q           E       E     E       E
|---------------------------------------------|-----------------------------------------------------|
|--------------------------0-----2-------0----|----------------------------------0-----2-------0----|
|--------------------------1-----2-------1----|----------------------------------1-----2-------1----|
|--------------------------2-----2-------2----|----------------------------------2-----2-------2----|
|-2-----2----------2-------------0------------|--2-----------2-----------2-------------0------------|
|-0-----0----------0--------------------------|--0-----------0-----------0--------------------------|
|
|       |---3---|  |----3-----|  |----3-----|    |---3----|  |---3----|  |----3-----|  |----3-----|
| E  E  E     E E  E     E    E  E     E    E    E     E  E  E     E  E  E     E    E  E     E    E
|---12----------0------------12------------12-|----------12----------12------------12------------12-|
|------------12---------12------------12------|-------12----------12----------12------------12------|
|-x----14b16------14b16---------14b16---------|-14b16-------14b16-------14b16---------14b16---------|
|---------------------------------------------|-----------------------------------------------------|
|---------------------------------------------|-----------------------------------------------------|
|---------------------------------------------|-----------------------------------------------------|


                                        A        E
   PM---------------------|
   q           q           E       E     E       E
|-----------------------------------------------------|
|----------------------------------0-----2-------0----|
|----------------------------------1-----2-------1----|
|----------------------------------2-----2-------2----|
|--2-----------2-----------2-------------0------------|
|--0-----------0-----------0--------------------------|
|
|  |---3----|  |---3----|  |----3-----|  |----3-----|
|  E     E  E  E     E  E  E     E    E  E     E    E
|----------12----------12------------12------------12-|
|-------12----------12----------12------------12------|
|-14b16-------14b16-------14b16---------14b16---------|
|-----------------------------------------------------|
|-----------------------------------------------------|
|-----------------------------------------------------|


                                     A   E
   PM------------------|
   q           q        E       E    E   E
|--------------------------------------------|
|-------------------------------0----2---0---|
|-------------------------------1----2---1---|
|-------------------------------2----2---2---|
|--2-----------2--------2------------0-------|
|--0-----------0--------0--------------------|
|
|  |---3----|  |--3--|  |----3-----| |--3--|
|  E     E  E  E  E  E  E     E    E E E   E
|----------12----12---------------12---------|
|-------12----12-------------12--------------|
|-14b16-------------12-14b16---------x-x---x-|
|------------------------------------x-x---x-|
|--------------------------------------------|
|--------------------------------------------|


   |--3--|  |--3--|  |--3--|  |--3--|    |--3--|  |--3--|  |--3--|  |--3--|
   E  E  E  E  E  E  E  E  E  E  E  E    E  E  E  E  E  E  E  E  E  E  E  E
|-------------------------------------|--7--7--7--7--7--7--7--7--7--7--7--7-||
|--------------------9--9--9--9--9--9-|--9--9--9--9--9--9--9--9--9--9--9--9-||
|--9--9--9--9--9--9--9--9--9--9--9--9-|--9--9--9--9--9--9--9--9--9--9--9--9-||
|--9--9--9--9--9--9--9--9--9--9--9--9-|--9--9--9--9--9--9--9--9--9--9--9--9-||
|--7--7--7--7--7--7--7--7--7--7--7--7-|--7--7--7--7--7--7--7--7--7--7--7--7-||
|-------------------------------------|-------------------------------------||
|
|  |--3--|  |--3--|  |--3--|  |--3--|    |--3--|  |--3--|  |--3--|  |--3--|
|  E  E  E  E  E  E  E  E  E  E  E  E    E  E  E  E  E  E  E  E  E  E  E  E
|-------------------12-12-12-12-12-12-|-12-12-12-12-12-12-12-12-12-12-12-12-||
|-------------------12-12-12-12-12-12-|-12-12-12-12-12-12-12-12-12-12-12-12-||
|----------13-13-13-13-13-13-13-13-13-|-13-13-13-13-13-13-13-13-13-13-13-13-||
|-14-14-14-14-14-14-14-14-14-14-14-14-|-14-14-14-14-14-14-14-14-14-14-14-14-||
|-14-14-14-14-14-14-14-14-14-14-14-14-|-14-14-14-14-14-14-14-14-14-14-14-14-||
|-12-12-12-12-12-12-12-12-12-12-12-12-|-12-12-12-12-12-12-12-12-12-12-12-12-||


   Chorus
    B5
    Gtr I
    E E  q   E Q.      E E  E E +E  E E E
||------------------|---------------------|
||o-----------------|---------------------|
||------------------|---------------------|
||--9-9-------------|---------------------|
||o-9-9-11--11-9----|-11-9-11-9-(9)-9-9-9-|
||--7-7--7---7-7----|--7-7--7-7-(7)-7-7-7-|


  Q   q   E Q.      E E  E E +E  E E E
|----------------|---------------------|
|----------------|---------------------|
|----------------|---------------------|
|-9--------------|---------------------|
|-9--11--11-9----|-11-9-11-9-(9)-9-9-9-|
|-7---7---7-7----|--7-7--7-7-(7)-7-7-7-|


  Q   q   E Q.      E E  E E +E  E E E   Q   q   E Q.      E E  E E +E  E E E
|----------------|---------------------|----------------|----------------------|
|----------------|---------------------|----------------|----------------------|
|----------------|---------------------|----------------|----------------------|
|-9--------------|---------------------|-9--------------|----------------------|
|-9--11--11-9----|-11-9-11-9-(9)-9-9-9-|-9--11--11-9----|-11-9-11-9-(9)-9-9-9--|
|-7---7---7-7----|--7-7--7-7-(7)-7-7-7-|-7---7---7-7----|--7-7--7-7-(7)-7-7-7--|


  1.
  A5
                              ~~~~                                  ~~~~
  Q  q  E Q.      E E  E  E  +Q   Q     Q  q  E Q.      E E  E  E  +Q   Q
|--------------|----------------------|--------------|------------------------||
|---------5----|----------------------|---------5----|-----------------------o||
|---------2----|----9-12-11-(11)--9\--|---------2----|----9-12-11-(11)--9\----||
|-2--4--4-2----|-/7-7-----------------|-2--4--4-2----|-/7-7-------------------||
|-0--0--0-0----|--0-------------------|-0--0--0-0----|--0--------------------o||
|--------------|----------------------|--------------|------------------------||


  2.
  A5
                             ~~~~                                 ~~~~
  Q  q  E Q.     E E  E  E  +Q   Q     Q  q  E Q  E   E E  E  E  +Q   Q
|--------------|---------------------|--------------|---5------------------||
|--------------|---------------------|--------------|---5------------------||
|----4--4-2----|---7-12-11-(11)--9\--|--------------|---2-12-11-(11)--9\---||
|-2--4--4-2----|---7-----------------|-2--4--4-2--2-|-2--------------------||
|-0--0--0-0----|-x-------------------|-0--0--0-0--0-|-0--------------------||
|--------------|---------------------|--------------|----------------------||


 Interlude
  E         A E             A E             A E             A E
  PM----|         PM----|         PM----|         PM----|
  q  q  E E E E   q  q  E E E E   q  q  E E E E   q  q  E E E E
|---------------|---------------|---------------|----------------|
|---------0-2-0-|---------0-2-0-|---------0-2-0-|---------0-2-0--|
|---------1-2-1-|---------1-2-1-|---------1-2-1-|---------1-2-1--|
|-2--2--2-2-2-2-|-2--2--2-2-2-2-|-2--2--2-2-2-2-|-2--2--2-2-2-2--|
|-2--2--2---0---|-2--2--2---0---|-2--2--2---0---|-2--2--2---0----|
|-0--0--0-------|-0--0--0-------|-0--0--0-------|-0--0--0--------|


            A E             A E              A E
  PM----|         PM----|         PM-----|
  q  q  E E E E   q  q  E E E E   q   q  E E E E
|---------------|---------------|----------------|
|-----------2-0-|-----------2-0-|------------2-0-|
|---------1-2-1-|---------1-2-1-|----------1-2-1-|
|-----------2-2-|-----------2-2-|------------2-2-|
|-2--2--2---0---|-2--2--2---0---|-2---2--2---0---|
|-0--0--0-------|-0--0--0-------|-0---0--0-------|
|
| Gtr II
| TP TP TP  TP    TP TP TP  TP
| Q  Q  Q   Q     Q  Q  Q   Q     e E Q  H
|---------------|---------------|----------------|
|---------------|---------------|----------------|
|-9--9--9---9---|-9--9--9---9---|-9--------------|
|---------------|---------------|----------------|
|-7--7--7---7---|-7--7--7---7---|-7--------------|
|---------------|---------------|----------------|


            A E             A E
  PM----|         PM----|
  q  q  E E E E   q  q  E E E E
|---------------|-----------------|
|-----------2-0-|-----------2-0---|
|---------1-2-1-|---------1-2-1---|
|-----------2-2-|-----------2-2---|
|-2--2--2---0---|-2--2--2---0-----|
|-0--0--0-------|-0--0--0---------|
|
|                 TP TP TP  TP
| W               Q  Q  Q   Q
|---------------|-----------------|
|---------------|-----------------|
|---------------|-9--9--9---9-----|
|---------------|-----------------|
|---------------|-7--7--7---7-----|
|---------------|-----------------|


                                   Outro
            A E              A E    E
  PM----|         PM-----|
  q  q  E E E E   q   q  E E E E     Q        Q        Q        E E
|---------------|----------------||---------------------------------|
|-----------2-0-|------------2-0-||-----------9--------9--------9-9-|
|---------1-2-1-|----------1-2-1-||-----------9--------9--------9-9-|
|-----------2-2-|------------2-2-||-----------9--------9--------9-9-|
|-2--2--2---0---|-2---2--2---0---||-----------7--------7--------7-7-|
|-0--0--0-------|-0---0--0-------||--0------------------------------|
|
| TP TP TP  TP
|                                    |--3--|  |--3--|  |--3--|
| Q  Q  Q   Q     e E Q  H           E  E  E  E  E  E  E  E  E  Q
|---------------|----------------||---------------------------------|
|---------------|----------------||---------------------------------|
|-9--9--9---9---|-9--------------||-13-13-13-13-13-13-13-13-13-13---|
|---------------|----------------||-14-14-14-14-14-14-14-14-14-14---|
|-7--7--7---7---|-7--------------||-14-14-14-14-14-14-14-14-14-14---|
|---------------|----------------||-12-12-12-12-12-12-12-12-12-12---|


                                |--3--|  |--3--|  |--3--|  |--3--|
   Q        Q   Q        E E    E  E  E  E  E  E  E  E  E  E  E  E
|----------------------------|-------------------------------------|
|--9--------9---9--------9-9-|--9--9--9--9--9--9--9--9--9--9--9--9-|
|--9--------9---9--------9-9-|--9--9--9--9--9--9--9--9--9--9--9--9-|
|--9--------9---9--------9-9-|--9--9--9--9--9--9--9--9--9--9--9--9-|
|--7--------7---7--------7-7-|--7--7--7--7--7--7--7--7--7--7--7--7-|
|----------------------------|-------------------------------------|
|
|  |--3--|      |--3--|         |--3--|  |--3--|  |--3--|  |--3--|
|  E  E  E  Q   E  E  E  Q      E  E  E  E  E  E  E  E  E  E  E  E
|----------------------------|-------------------------------------|
|----------------------------|-------------------------------------|
|-13-13-13-13--13-13-13-13---|-13-13-13-13-13-13-13-13-13-13-13-13-|
|-14-14-14-14--14-14-14-14---|-14-14-14-14-14-14-14-14-14-14-14-14-|
|-14-14-14-14--14-14-14-14---|-14-14-14-14-14-14-14-14-14-14-14-14-|
|-12-12-12-12--12-12-12-12---|-12-12-12-12-12-12-12-12-12-12-12-12-|


   |--3--|  |--3--|  |--3--|  |--3--|
   E  E  E  E  E  E  E  E  E  E  E  E
|-------------------------------------|
|--9--9--9--9--9--9--9--9--9--9--9--9-|
|--9--9--9--9--9--9--9--9--9--9--9--9-|
|--9--9--9--9--9--9--9--9--9--9--9--9-|
|--7--7--7--7--7--7--7--7--7--7--7--7-|
|-------------------------------------|
|
|  |--3--|  |--3--|  |--3--|  |--3--|
|  E  E  E  E  E  E  E  E  E  E  E  E
|-------------------------------------|
|-------------------------------------|
|-13-13-13-13-13-13-13-13-13-13-13-13-|
|-14-14-14-14-14-14-14-14-14-14-14-14-|
|-14-14-14-14-14-14-14-14-14-14-14-14-|
|-12-12-12-12-12-12-12-12-12-12-12-12-|


   |--3--|  |--3--|  |--3--|  |--3--|
   E  E  E  E  E  E  E  E  E  E  E  E
|--7--7--7--7--7--7--7--7--7--7--7--7-|
|--9--9--9--9--9--9--9--9--9--9--9--9-|
|--9--9--9--9--9--9--9--9--9--9--9--9-|
|--9--9--9--9--9--9--9--9--9--9--9--9-|
|--7--7--7--7--7--7--7--7--7--7--7--7-|
|-------------------------------------|
|
|  |--3--|  |--3--|  |--3--|  |--3--|
|  E  E  E  E  E  E  E  E  E  E  E  E
|-12-12-12-12-12-12-12-12-12-12-12-12-|
|-12-12-12-12-12-12-12-12-12-12-12-12-|
|-13-13-13-13-13-13-13-13-13-13-13-13-|
|-14-14-14-14-14-14-14-14-14-14-14-14-|
|-14-14-14-14-14-14-14-14-14-14-14-14-|
|-12-12-12-12-12-12-12-12-12-12-12-12-|


   |--3--|  |--3--|  |--3--|  |--3--|
   E  E  E  E  E  E  E  E  E  E  E  E    e E Q  H
|--7--7--7--7--7--7--7--7--7--7--7--7-|--7-----------*|
|--9--9--9--9--9--9--9--9--9--9--9--9-|--9-----------*|
|--9--9--9--9--9--9--9--9--9--9--9--9-|--9-----------*|
|--9--9--9--9--9--9--9--9--9--9--9--9-|--9-----------*|
|--7--7--7--7--7--7--7--7--7--7--7--7-|--7-----------*|
|-------------------------------------|--------------*|
|
|  |--3--|  |--3--|  |--3--|  |--3--|
|  E  E  E  E  E  E  E  E  E  E  E  E    e E Q  H
|-12-12-12-12-12-12-12-12-12-12-12-12-|-12-----------*|
|-12-12-12-12-12-12-12-12-12-12-12-12-|-12-----------*|
|-13-13-13-13-13-13-13-13-13-13-13-13-|-13-----------*|
|-14-14-14-14-14-14-14-14-14-14-14-14-|-14-----------*|
|-14-14-14-14-14-14-14-14-14-14-14-14-|-14-----------*|
|-12-12-12-12-12-12-12-12-12-12-12-12-|-12-----------*|
            
Submit corrections

↑ Back to top | Tablatures and chords for acoustic guitar and electric guitar, ukulele, drums are parodies/interpretations of the original songs. You may use it for private study, scholarship, research or language learning purposes only