Home » D » David Allan Coe »

David Allan Coe - Willie Waylon And Me Bass

Artists:  A B C D E F G H I J K L M N O P Q R S T U V W X Y Z # 

Willie Waylon And Me Bass

(ver. 1) Click to play this song!
David Allan Coe
Tuning: Standard

  
  guitar intro 0:00

  intro  0:03
G|-----------|
D|-5---------|
A|-----------|
E|-----------|


  verse pt1 0:05
G|-----------|-----------|-----------|-----------|
D|-----------|-3---------|-----------|-3---------|
A|------1----|------3----|------1----|------3----|
E|-3---------|-----------|-3---------|-----------|


  verse pt2 0:23
G|-----------|-----------|-----------|-----------|
D|-----------|-----------|-----------|-----------|
A|-5----5----|-3----3----|-5----5----|-3----3----|
E|---5----5--|---3----3--|---5----5--|---3----3-3|


  verse pt3 0:32
G|-----------|-----------|-----------|-----------|
D|-----------|-3----3----|-----------|-3----3----|
A|-1----1---3|---3----3--|-3----3---5|---3-------|
E|---1----1--|-----------|---3----3--|-----------|

  chorus 0:40
G|-----------|-----------|-----------|-----------|
D|-5----5----|-5----5----|-5----5----|-5----5----|
A|---5----5--|---5----5--|---5----5--|---5----5--|
E|-----------|-----------|-----------|-----------|

G|-----------|-----------|-----------|-----------|
D|-5----5----|-----------|-5----5----|-----------|
A|---5----578|-5----5--8-|---5----875|-3----3----|
E|-----------|---5----5--|-----------|---3----3--|

G|-----------|-----------|
D|-----------|-5----5----|
A|-5----5---8|---5----875|
E|---5----5--|-----------|


  bridge 1:00
G|-----------|-----------|-----------|-----------|
D|-----------|-5----5----|-----------|-5----5----|
A|-3----3--35|---5-----35|-3----3--35|---5-----35|
E|---3----3--|--------3--|---3----3--|--------3--|

G|-----------|-----------|-----------|-----------|
D|-----------|-5----5----|-----------|-5---------|
A|-3----3--35|---5-----87|-5----5---8|-----------|
E|---3----3--|-----------|---5----5--|-----------|


G|-----------|
D|------5----|
A|-----------|
E|-3---------|            
Submit corrections

↑ Back to top | Tablatures and chords for acoustic guitar and electric guitar, ukulele, drums are parodies/interpretations of the original songs. You may use it for private study, scholarship, research or language learning purposes only