» » »

Darren Korb - In Case Of Trouble Tabs

Artists:  A B C D E F G H I J K L M N O P Q R S T U V W X Y Z # 

In Case Of Trouble Tabs

(ver. 2) Click to play this song!
Darren Korb
 Rating:
4/5 (4 votes)

 In Case Of Trouble lessons Tabs too difficult? Try these video lessons and learn fast
 
                -------------------------------------------------------------------------------
      In Case of Trouble (Bastion Soundtrack) - Darren Korb
-------------------------------------------------------------------------------

Tuning:DADGAD


There are three riffs troughout this song, they will be shown underneath.
For rythm please listen to the song


Riff 1
D|-0------0---0------0--0------0-----0--0------0---0-----0-X10--/-0--------------|
A|-0------0---0------0--0------0-----0--0------0---0-----0-X10--/-0--------------|
G|-0-h2---2---0-h2---2--2------0-h2--2--0-h2---2---2\----4-X10--/-2--------------|
D|-0------0---0------0--0------0-----0--0------0---3\----5-X10--/-3--------------|
A|-0------0---0------0--0------0-----0--0------0---x-----x-X10--/-x--------------|
D|-x------x---x-------x--x-----x-----x--x------0---3\----5-X10--/-3--------------|

Riff 2
D|-0-----0--0------0-0---0-----0-0-0-0-0-0-0-0-0-0-0-0--0-0-0-0-0-0-0-0-0-0-0-0-0-0-----|
A|-0-----0--0------0-0---0-----0-0-0-0-0-0-0-0-0-0-0-0--0-0-0-0-0-0-0-0-0-0-0-0-0-0-----|
G|-0-h2--2--0-h2---2-2--\5-h7--7-5-5-2-5-7-7-5-10-10-9--7-7-5-5-2-5-7-7-10-10-10-9------|
D|-0-----0--0------0-0---0-----0-0-0-0-0-0-0-0-0-0-0-0--0-0-0-0-0-0-0-0-0-0-0-0-0-0-----|
A|-0-----0--0------0-0---0-----0-0-0-0-0-0-0-0-0-0-0-0--0-0-0-0-0-0-0-0-0-0-0-0-0-0-----|
D|-0-----0--0------0-0---0-----0-0-0-0-0-0-0-0-0-0-0-0--0-0-0-0-0-0-0-0-0-0-0-0-0-0-----|

D|-0-X10----0----------------------|
A|-0-X10----0----------------------|
G|-4-X10--/2------| Back to riff 1-|
D|-5-X10--/3-----------------------|
A|-x-X10---x-----------------------|
D|-5-X10--/3-----------------------|

Riff 3
D|-0-0-0-0-0-0-0-0-0-0-0-0-0-0-0-0-0-0-0-0-0-0-0-0--|
A|-0-0-0-0-0-0-0-0-0-0-0-0-0-0-0-0-0-0-0-0-0-0-0-0--|
G|-2-2-2-2-2-2-2-2-2-2-2-2-2-1-1-1-1-1-1-1-1-1-1-1--|
D|-0-0-0-0-0-0-0-0-0-0-0-0-0-0-0-0-0-0-0-0-0-0-0-0--|
A|-0-0-0-0-0-0-0-0-0-0-0-0-0-0-0-0-0-0-0-0-0-0-0-0--|
D|-0-0-0-0-0-0-0-0-0-0-0-0-0-0-0-0-0-0-0-0-0-0-0-0--|


************************************

| /   slide up
| \   slide down
| h   hammer-on
| p   pull-off
| ~   vibrato
| +   harmonic
| x   Mute note
| b   Bend
| pb  Pre-bend
| br  Bend release
| pbr Pre-bend release
| brb Bend release bend

************************************
            
Submit corrections


        In Case Of Trouble lessons Hard to play? Try these video lessons and learn fast In Case Of Trouble lessons
        
↑ Back to top | Tablatures and chords for acoustic guitar and electric guitar, ukulele, drums are parodies/interpretations of the original songs. You may use it for private study, scholarship, research or language learning purposes only