» » »

Dark Tranquility - The Wonders At Your Feet Tabs

Artists:  A B C D E F G H I J K L M N O P Q R S T U V W X Y Z # 

The Wonders At Your Feet Tabs

(ver. 1) Click to play this song!
Dark Tranquility
 Rating:
4/5 (4 votes)


 The Wonders At Your Feet lessons Tabs too difficult? Try these video lessons and learn fast
 
                DARK TRANQUILITY- “THE WONDERS AT YOUR FEET” 


X- mute
b- bend
h- hammer-on
p- pull off
t- tap
\- slide
*- harmonic


        RIFF 1
E|----------------------------------------------------|
B|----------------------------------------------------|
G|----------------------------------------------------|
D|--7-9---------7-9----------------------------5------|
A|--5-7-2-------5-7-2-------2-2----5-5----7----3------|
E|------0-----------0-------0-0----3-3----5-----------|

        RIFF 2
E|--------------------------------------------------------------------------|
B|-----------------8-8-8-8-8-8-8-8---------------------8-8-8-8-8-8-8-8-8----|
G|-----------------X-X-X-X-X-X-X-X---------------------X-X-X-X-X-X-X-X-X----|
D|-----------------5-5-5-5-5-5-5-5---------------------5-5-5-5-5-5-5-5-5----|
A|-2-2-2-2-2-2-2-2-----------------5-7-2-2-2-2-2-2-2-2----------------------|
E|-0-0-0-0-0-0-0-0---------------------0-0-0-0-0-0-0-0--------------------0-|

               RIFF 3
E|-------------------------------------------|
B|-------------------------------------------|
G|-------------------------------------------|
D|-------------------------------------------|
A|---2--------5--------7--------10--\\\------| 
E|---0----00003----33335----5555-8---\\\-----|
 P.M.     ----     ----     ----

       RIFF 4
E|-----------------------------------------------|
B|-----------------------------------------------|
G|-----------------------------------------------|
D|--9-9-9-9-9-9-9-9-9-9-9-7-7-7-7-7-7-7-7-7-7-7--|
A|--7-7-7-7-7-7-7-7-7-7-7-5-5-5-5-5-5-5-5-5-5-5--|
E|-----------------------------------------------|
       RIFF 4 cont
E|-----------------------------------------------|
B|-----------------------------------------------|
G|-----------------------------------------------|
D|--7-7-7-7-7-7-7-7-7-7-7-7-7-7-7-7-7-7-7-7-7-7--|
A|--7-7-7-7-7-7-7-7-7-7-7-5-5-5-5-5-5-5-5-5-5-5--|
E|-----------------------------------------------|
 
       RIFF 5
E|------------------------------------------------|
B|------------------------------------------------|
G|------------------------------------------------|
D|----------------4-5-4-5~---5-5/7-7~--7h9-9~-----|
A|--7~~~~-----------------------------------------|
E|------------------------------------------------|

       RIFF 6
E|-----------------------------------------------------------------------|
B|-----8-----8-----8-----8-----8-------7-----7-----7----7-----7----------|
G|-------9-----9-----9-----9-----9-------7-----7-----7----7-----7--------|
D|---9-----9-----9-----9-----9-----9-9-----9-----9-----9----9-----9-10---|
A|-----------------------------------------------------------------------|
E|-----------------------------------------------------------------------|
P.M.   - - - - - - - - - - - - -        - - - - - - - - - - - -
 
       RIFF 7 -GUITAR 1
E|------------------------------------------------------------------------|
B|------------------------------------------------------------------------|
G|----------4-5---5-----7-4---4-------------------------------------------|
D|----------4-5---5-----7-4---4—4p3-2---------------5---------------------|
A|---2---2--2-3---3-----5-2---2-----0-0-0-0-0-0-0-0-3-3-3-3-3-3-3---------|
E|---0---0---------------------------------------------------------2-3-2--|
 P.M.                                 - - - - - - -   - - - - - - 

       RIFF 7 -GUITAR 2
E|------------------------------------------------------------------------|
B|------------------------------------------------------------------------|
G|----------4-5---5-------4---4-------------------------------------------|
D|----------4-5---5--*5*~-4---4—4p3-2---------------5---------------------|
A|---2---2--2-3---3-------2---2-----0-0-0-0-0-0-0-0-3-3-3-3-3-3-3---------|
E|---0---0---------------------------------------------------------2-3-2--|
 P.M.                                 - - - - - - -   - - - - - - 
	  SOLO RIFF A -GUITAR 1
E|--17b---17-17-17-17/15--15-15-15/14—15h17p15-14-----------------|
B|-------------------------------------------------15-------------|
G|----------------------------------------------------17-16-17~~--|
D|----------------------------------------------------------------|
A|----------------------------------------------------------------|
E|----------------------------------------------------------------|

        SOLO RIFF B -GUITAR 1
E|--------------12h14----------15-19-15------15-17-15~~--|
B|-----12-13-12----------15-19-----------19--------------|
G|--14----------------16---------------------------------|
D|-------------------------------------------------------|
A|-------------------------------------------------------|
E|-------------------------------------------------------|

        SOLO RIFF C  -GUITAR 1
E|--t12p8p7p5p0h5h7h8----|
B|-----------------------|
G|-----------------------|
D|-----------------------|
A|-----------------------|
E|-----------------------|

        SOLO RIFF D  -GUITAR 1
E|--t15p8h10h12-----|
B|------------------|
G|------------------|
D|------------------|
A|------------------|
E|------------------|

        SOLO RIFF E  -GUITAR 1
E|--7~~----------------------------------|
B|----------------15~~---15/19—17~~~~----|
G|---------14b-12------------------------|
D|---------------------------------------|
A|---------------------------------------|
E|---------------------------------------|

       RIFF 8 (Behind solo) –GUITAR 2
E|---------------------------------------------------------------------------|
B|---------------------------------------------------------------------------|
G|----------4-5----5--7-4----4-----------------------------------------------|
D|----------4-5----5--7-4----4----—4p3-2---------------5---------------------|
A|---2----2-2-333333--5-2222222222-----0-0-0-0-0-0-0-0-3-3-3-3-3-3-3---------|
E|---000000------------------------------------------------------------2-3-2-|
 P.M. ----     ----      ---- ----       - - - - - - -   - - - - - - 

       RIFF 9 (Still behind solo) –GUITAR 2
E|-------------------------------------------|
B|-------------------------------------------|
G|------------4-5-5-------------4------------|
D|------------4-5-5-------------4------------|
A|--5-2-------2-3-3------5------2------------|
E|--3-0------------------3-------------------|

       RIFF 10
E|-------------------------------------------------------------------------|
B|-------------------------------------------------------------------------|
G|-------------------------------------------------------------------------|
D|------------------------------------5-5-5-5-5-5-5-5-5-5-5-5-5-5-5-5-5-5--|
A|--2-2-2-2-2-2-2-2-2-2-2-2-2-2-2-2-2-3-3-3-3-3-3-3-3-3-3-3-3-3-3-3-3-3-3--|
E|--0-0-0-0-0-0-0-0-0-0-0-0-0-0-0-0-0--------------------------------------|

       RIFF 10 cont.
E|-------------------------------------|
B|-------------------------------------|
G|-------------------------------------|
D|------------------4-4-4-4-4-4-4-4-4--|
A|--5-5-5-5-5-5-5-5-2-2-2-2-2-2-2-2-2--|
E|--3-3-3-3-3-3-3-3--------------------|

       RIFF 11
E|-------------------------------------|
B|-------------------------------------|
G|-------------------------------------|
D|-------------------------------------|
A|--2----5----7---X-10-10----5-7-------|
E|--0----3----5---X--8--8--------0-----|


SONG STRUCTURE IS…
RIFF 1
RIFF 2
RIFF 3
RIFF 4
RIFF 2
RIFF 3
RIFF 4 
RIFF 3
RIFF 5
RIFF 6
RIFF 7
SOLO A + RIFF 8
SOLO B + RIFF 8
SOLO C(4X) + RIFF 9
SOLO D(4X) + RIFF 9
SOLO E + RIFF 9
RIFF 10(2X)
RIFF 11

AND THATS ALL.
ENJOY.
            
Submit corrections



        The Wonders At Your Feet lessons Hard to play? Try these video lessons and learn fast The Wonders At Your Feet lessons
        
↑ Back to top | Tablatures and chords for acoustic guitar and electric guitar, ukulele, drums are parodies/interpretations of the original songs. You may use it for private study, scholarship, research or language learning purposes only