» » »

Darkness - Love Is Only A Feeling Tabs

Artists:  A B C D E F G H I J K L M N O P Q R S T U V W X Y Z # 

Love Is Only A Feeling Tabs

(ver. 2) Click to play this song!
Darkness
 Rating:
4/5 (4 votes)

 Love Is Only A Feeling lessons Tabs too difficult? Try these video lessons and learn fast
 
                e|---------------------------------------------------------------------
B|---------------------------------------------------------------------
G|--14/h/16--16-16-16-16-16-14---14------------------------------------
D|---------------------------------------14--16--14-------17-----------
A|-----------------------------------17--------------17-14-------------
E|---------------------------------------------------------------------


e|--------17----------17-----17----------17--17------------------------
B|--17bu----17bu--17bu---17bu---17bu-17----15--14----------------------
G|-------------------------------------------------16--14--------------
D|---------------------------------------------------------------------
A|---------------------------------------------------------------------
E|---------------------------------------------------------------------

  

e|---------------------------------------------------------------------
B|--------------------------------------15--17--15-17bu19bd17-15-------
G|--14/h/16--16-16-16-16-16-14--14/h/16--------------------------16----
D|---------------------------------------------------------------------
A|---------------------------------------------------------------------
E|---------------------------------------------------------------------

e|-15-15-15--14-14-14--------------------------------------------------
B|---------------------17-17 17\15-15-15-15----17----------------------
G|------------------------------------------14-------------------------
D|---------------------------------------------------------------------
A|---------------------------------------------------------------------
E|---------------------------------------------------------------------





          G                        D                           A

e|--------3------------------------2---------------------------0-------
B|--------3------------------------3---------------------------2-------
G|--------0------------------------2---------------------------2-------
D|--------0------------------------0---------------------------2-------
A|--------2----------------------------------------------------0-------
E|--------3------------------------------------------------------------

 




 (A)        Em7                                D                A

e|----------3----------------------------------2----------------0------
B|----------3----------------------------------3----------------2------
G|----------0----------------------------------2----------------2------
D|----------2----------------------------------0----------------2------
A|----------2---------------------------------------------------0------
E|----------0----------------------------------------------------------

  

    Em7             D              Bm           G      D

e|--3---------------2--------------2-----------------------------------
B|--3---------------3--------------3-----------------------------------
G|--0---------------2--------------4------------4------7---------------
D|--2---------------0--------------4------------5------7---------------
A|--2------------------------------2------------5------5---------------
E|--0-------------------------------------------3----------------------


     A      D  Bm   

e|---------------------------------------------------------------------
B|----------3--3-------------------------------------------------------
G|---2------2--4-------------------------------------------------------
D|---2------0--4-------------------------------------------------------
A|---0---------2-------------------------------------------------------
E|---------------------------------------------------------------------

 
ok i dont have the solo or anythin am still workin on that! any questions just mail me
            
Submit corrections


        Love Is Only A Feeling lessons Hard to play? Try these video lessons and learn fast Love Is Only A Feeling lessons
        
↑ Back to top | Tablatures and chords for acoustic guitar and electric guitar, ukulele, drums are parodies/interpretations of the original songs. You may use it for private study, scholarship, research or language learning purposes only